Oops, an error
Loading. Please wait.

Inuyasha - Taiji-Oku - Sango Tab

1,096 views 6 this week
no commentswrite comment
1 2 3 4 5
please rate
add to favorites
launch autoscroll
font size
0
reset
how to read this tab
guitar tuner
Tab Pro tools
  • play this tab
  • loop segment
  • change instrument
  • show fretboard
  • metronome
×
Best way to learn
"Inuyasha - Taiji-oku - Sango"
Autoscroll
slow
fast
+/-
esc
set tempo
stop
Contributor
Difficulty
intermediate

Taiji-Oku - Sango

Composed by: Kaoru Wada
Arranged by: Evan Pratt

The first two notes in parentheses marked as "h" are notes I was not able to identify, please
send me a message if you figure these out, or have any other changes. Thanks and enjoy!

evanptabs@gmail.com





                                     (00:00 - 00:14) 
                                        (Guitar 1)
                        
E||-------------3------|--------------3-----|--------------3-----|--------------3-----|
B||----------1---------|-----------1--------|-----------1--------|-----------1--------|
G||-------4------------|--------4-----------|--------4-----------|--------4-----------|
D||----2---------------|-----2--------------|-----2--------------|-----2--------------|
A||-0------------------|--0-----------------|--0-----------------|--0-----------------|
E||--------------------|--------------------|--------------------|--------------------|

                                        (Guitar 2)

E||----------------(h)-|-(h)------------(20)|-(19)--(15)--(12)---|--------------------|
B||--------------------|--------------------|--------------------|--------------------|
G||--------------------|--------------------|--------------------|--------------------|
D||--------------------|--------------------|--------------------|--------------------|
A||--------------------|--------------------|--------------------|--------------------|
E||--------------------|--------------------|--------------------|--------------------|

                                     (00:15 - 00:30) 
                                        (Guitar 1)
                        
E||-------------------3|-------------------3|-------------------3|-------------------3|
B||----------------1---|----------------1---|----------------1---|----------------1---|
G||-------------4------|-------------4------|-------------4------|-------------4------|
D||----------2---------|----------2---------|----------2---------|----------2---------|
A||-------0------------|-------0------------|-------0------------|-------0------------|
E||--------------------|--------------------|--------------------|--------------------|

                                        (Guitar 2)

E||-------15----19-----|-17-15-12-----------|--------------------|--------------------|
B||-12-13--------------|--------------------|-15-13--------------|--------------------|
G||--------------------|--------------------|-------14-----------|--------------------|
D||--------------------|--------------------|--------------------|--------------------|
A||--------------------|--------------------|--------------------|--------------------|
E||--------------------|--------------------|--------------------|--------------------|

                                     (00:30 - 00:46)
                                        (Guitar 1)

E||-------------------3|-------------------3|-------------------3|-------------------3|
B||----------------1---|----------------1---|----------------1---|----------------1---|
G||-------------4------|-------------4------|-------------4------|-------------4------|
D||----------2---------|----------2---------|----------2---------|----------2---------|
A||-------0------------|-------0------------|-------0------------|-------0------------|
E||--------------------|--------------------|--------------------|--------------------|

                                        (Guitar 2)

E||-------15----19-----|-17-15-12-----------|-------------12-----|--------------------|
B||-12-13--------------|--------------------|-15-13-15-----------|--------------------|
G||--------------------|--------------------|--------------------|--------------------|
D||--------------------|--------------------|--------------------|--------------------|
A||--------------------|--------------------|--------------------|--------------------|
E||--------------------|--------------------|--------------------|--------------------|

                                     (00:46 - 01:02)
                                        (Guitar 1)

E||-------------------3|-------------------3|-------------------3|-------------------3|
B||----------------1---|----------------1---|----------------1---|----------------1---|
G||-------------4------|-------------4------|-------------4------|-------------4------|
D||----------2---------|----------2---------|----------2---------|----------2---------|
A||-------0------------|-------0------------|-------0------------|-------0------------|
E||--------------------|--------------------|--------------------|--------------------|

                                        (Guitar 2)

E||--------------------|--------------------|--------------------|--------------------|
B||-15-13-12-----------|-10-12-10-----------|--------------------|--------------------|
G||-------------12-----|--------------------|----10-9------------|--------------------|
D||--------------------|--------------------|--------------------|--------------------|
A||--------------------|--------------------|--------------------|--------------------|
E||--------------------|--------------------|--------------------|--------------------|

                                     (01:02 - 01:18)
                                        (Guitar 1)

E||-------------------3|-------------------3|-------------------3|-------------------3|
B||----------------1---|----------------1---|----------------1---|----------------1---|
G||-------------4------|-------------4------|-------------4------|-------------4------|
D||----------2---------|----------2---------|----------2---------|----------2---------|
A||-------0------------|-------0------------|-------0------------|-------0------------|
E||--------------------|--------------------|--------------------|--------------------|

                                        (Guitar 2)

E||-------15----19-----|-17-15-12-----------|--------------------|--------------------|
B||-12-13--------------|--------------------|-15-13--------------|--------------------|
G||--------------------|--------------------|-------14-----------|--------------------|
D||--------------------|--------------------|--------------------|--------------------|
A||--------------------|--------------------|--------------------|--------------------|
E||--------------------|--------------------|--------------------|--------------------|

                                     (01:18 - 01:34)
                                        (Guitar 1)

E||-------------------3|-------------------3|-------------------3|-------------------3|
B||----------------1---|----------------1---|----------------1---|----------------1---|
G||-------------4------|-------------4------|-------------4------|-------------4------|
D||----------2---------|----------2---------|----------2---------|----------2---------|
A||-------0------------|-------0------------|-------0------------|-------0------------|
E||--------------------|--------------------|--------------------|--------------------|

                                        (Guitar 2)

E||-------15----19-----|-17-15-12-----------|-------------12-----|--------------------|
B||-12-13--------------|--------------------|-15-13-15-----------|--------------------|
G||--------------------|--------------------|--------------------|--------------------|
D||--------------------|--------------------|--------------------|--------------------|
A||--------------------|--------------------|--------------------|--------------------|
E||--------------------|--------------------|--------------------|--------------------|

                                     (01:34 - 01:50)
                                        (Guitar 1)

E||-------------------3|-------------------3|-------------------3|-------------------3|
B||----------------1---|----------------1---|----------------1---|----------------1---|
G||-------------4------|-------------4------|-------------4------|-------------4------|
D||----------2---------|----------2---------|----------2---------|----------2---------|
A||-------0------------|-------0------------|-------0------------|-------0------------|
E||--------------------|--------------------|--------------------|--------------------|

                                        (Guitar 2)
                                    
E||---------12-15------|12-15--19-20--------|-(22)-(23)----------|--------------------|
B||15-13-15------------|--------------------|--------------------|--------------------|
G||--------------------|--------------------|--------------------|--------------------|
D||--------------------|--------------------|--------------------|--------------------|
A||--------------------|--------------------|--------------------|--------------------|
E||--------------------|--------------------|--------------------|--------------------|

                                     (01:50 - 02:06)
                                        (Guitar 1)

E||-------------------3|-------------------3|-------------------3|---3~--3~-----------|
B||----------------1---|----------------1---|----------------1---|---1~--1~-----------|
G||-------------4------|-------------4------|-------------4------|---4~--4~-----------|
D||----------2---------|----------2---------|----------2---------|---2~--2~-----------|
A||-------0------------|-------0------------|-------0------------|---0~--0~-----------|
E||--------------------|--------------------|--------------------|--------------------|


                                     (02:06 - 03:41)
                                        (Struming)
E||--0-xxxx-0----------|--------------------|--------------------|--------------------|
B||--0-xxxx-0----------|--------------------|--------------------|--------------------|
G||--2-xxxx-2----------|--------------------|--------------------|--------------------|
D||--2-xxxx-2----------|--------------------|--------------------|--------------------|
A||--0-xxxx-0----------|--------------------|--------------------|--------------------|
E||--0-xxxx-0----------|--------------------|--------------------|--------------------|




Legend:


Notes in Parentheses (10) - Harmonic or synthesized note

X - palm or hand muted notes
comments
We did not receive enough feedback on this tab! Please rate:
print report bad tab
1 2 3 4 5
I want to post or [tab]
guest
You may want to rate the tab now too:
select rating
Please do not post tabs as comments. Select "correction" instead!