Oops, an error
Loading. Please wait.

Ixion Saga Dt - Dt Suteru Full tab

19 views 1 this week
no commentswrite comment
1 2 3 4 5
3 more votes to show rating
add to favorites
×
Save as Personal and add changes to this tab that will be seen only by you. Learn more ›
×
You can save this tab as Personal to edit and correct it or add notes. All changes will be seen only by you. Learn more »
launch autoscroll
font size
0
reset
how to read this tab
guitar tuner
edit
Autoscroll
slow
fast
+/-
esc
set tempo
stop
Anime: Ixion Saga DT  
Artist/Band: Golden Bomber 
Song: DT Suteru
Tab written by: Alper Çekin

[Intro]
e|----------------------------|
B|----------------------------|
G|----------------------------|   (3x) (repeat) 
D|----------------------------|
A|----------------------------|
D|-0-0-0--0-0-1--1-1-2--2-2-1-|

[Chorus]
e|---------------------------------|-------------------------|
B|---------------------------------|-------------------------|
G|---------------------------------|-------------------------|
D|-3-3-3-3-3--5-5-5-5-5--2-2-2-2-2-|-7-7-7/5-----------------|
A|-1-1-1-1-1--3-3-3-3-3--0-0-0-0-0-|-5-5-5/3--5-3-3-3--7-7-7-|
D|---------------------------------|----------3-3-3-3--5-5-5-|

e|-----------------|------------------|
B|-----------------|------------------|
G|-----------------|------------------|
D|-10-10-12--9/10--|--10-10-17--15-14-|
A|--8--8-10--7/-8--|---8--8-15--13-12-|
D|-----------------|------------------|

e|---------------------------------|----------------------|
B|---------------------------------|----------------------|
G|---------------------------------|----------------------|
D|-3-3-3-3-3--5-5-5-5-5--2-2-2-2-2-|-7-7-7/5--------------|
A|-1-1-1-1-1--3-3-3-3-3--0-0-0-0-0-|-5-5-5/3--5-5-5-5--7--|
D|---------------------------------|----------3-3-3-3--5--|

                pm.
e|--------------------------|
B|--------------------------|
G|--------------------------|
D|-7-7--5-5--3--3-3-3-3-3-3-|
A|-5-5--3-3--1--1-1-1-1-1-1-|
D|--------------------------|

     pm.   pm.        pm.   pm.         pm.   pm.        pm.   pm.
e|----------------------------------|----------------------------------|
B|----------------------------------|----------------------------------|
G|----------------------------------|----------------------------------|
D|-3-3-3-3-3-3-3-3--5-5-5-5-5-5-5-5-|-7-7-7-7-7-7-7-7--7-7-7-7-7-7-7-7-|
A|-3-3-3-3-3-3-3-3--3-3-3-3-3-3-3-3-|-5-5-5-5-5-5-5-5--7-7-7-7-7-7-7-7-|
D|----------------------------------|----------------------------------|

     pm.   pm.        pm.   pm.         pm.   pm.        pm.   pm.
e|----------------------------------|----------------------------------|
B|----------------------------------|----------------------------------|
G|----------------------------------|----------------------------------|
D|-8-8-8-8-8-8-8-8--3-3-3-3-3-3-3-3-|-5-5-5-5-5-5-5-5--5-5-5-5-5-5-5-5-|
A|-8-8-8-8-8-8-8-8--3-3-3-3-3-3-3-3-|-5-5-5-5-5-5-5-5--3-3-3-3-3-3-3-3-|
D|----------------------------------|----------------------------------|

     pm.   pm.        pm.   pm.         pm.   pm.        pm.   pm.
e|----------------------------------|----------------------------------|
B|----------------------------------|----------------------------------|
G|----------------------------------|----------------------------------|
D|-3-3-3-3-3-3-3-3--5-5-5-5-5-5-5-5-|-7-7-7-7-7-7-7-7--7-7-7-7-7-7-7-7-|
A|-3-3-3-3-3-3-3-3--3-3-3-3-3-3-3-3-|-5-5-5-5-5-5-5-5--7-7-7-7-7-7-7-7-|
D|----------------------------------|----------------------------------|

     pm.   pm.        pm.   pm.         pm.   pm.
e|----------------------------------|----------------------------------|
B|----------------------------------|----------------------------------|
G|----------------------------------|----------------------------------|
D|-8-8-8-8-8-8-8-8--3-3-3-3-3-3-3-3-|-5-5-5-5-5-5-5-5--5-5-5-5-5-5-5-5-|
A|-8-8-8-8-8-8-8-8--3-3-3-3-3-3-3-3-|-5-5-5-5-5-5-5-5--3-3-3-3-3-3-3-3-|
D|----------------------------------|----------------------------------|

      pm       pm                   pm                     pm.   pm.
e|----------------------------------------|---------------------------------------|
B|----------------------------------------|---------------------------------------|
G|----------------------------------------|---------------------------------------|
D|-2-2-2-2--7-7-7-7-----------------------|-7-7-7-7-7-7-7-----------------5-5--2--|
A|-0-0-0-0--5-5-5-5--5-5--2--7-5--7-7-7-7-|-5-5-5-5-5-5-5--3-3-3-3-3-3-3--3-3--0--|
D|-------------------3-3--0-------7-7-7-7-|----------------5-5-5-5-5-5-5----------|

e|---------------------------------|-------------------------|
B|---------------------------------|-------------------------|
G|---------------------------------|-------------------------|
D|-3-3-3-3-3--5-5-5-5-5--2-2-2-2-2-|-7-7-7/5-----------------|
A|-1-1-1-1-1--3-3-3-3-3--0-0-0-0-0-|-5-5-5/3--5-5-5-5--7-7-7-|
D|---------------------------------|----------3-3-3-3--5-5-5-|

e|-----------------|------------------|
B|-----------------|------------------|
G|-----------------|------------------|
D|-10-10-12--9/10--|--10-10-17--15-14-|
A|--8--8-10--7/-8--|---8--8-15--13-12-|
D|-----------------|------------------|

e|---------------------------------|----------------------|
B|---------------------------------|----------------------|
G|---------------------------------|----------------------|
D|-3-3-3-3-3--5-5-5-5-5--2-2-2-2-2-|-7-7-7/5--------------|
A|-1-1-1-1-1--3-3-3-3-3--0-0-0-0-0-|-5-5-5/3--5-5-5-5--7--|
D|---------------------------------|----------3-3-3-3--5--|
                 
e|--------------|
B|--------------|
G|--------------|
D|-7-7--5-5--3--|
A|-5-5--3-3--1--|
D|--------------|

e|---------------------------------|
B|-6---------------5---------------|
G|-5---------------5---------------|
D|-0-0-0-0-0-0-0-0-0-0-0-0-0-0-0-0-|    (4x) (repeat)
A|---------------------------------|
D|---------------------------------|

     pm.      pm.      pm.                  pm.   pm.     pm.   pm.
e|--------------------------------------|-----------------------------------------------|
B|--------------------------------------|-----------------------------------------------|
G|--------------------------------------|-----------------------------------------------|
D|----------7-7-7-7---------------------|----------------7-7-7-7-7-7-7-----------5-5--2-|
A|-7-7-7-7--5-5-5-5--5-5-5-5------5---5-|-7-7-7-7-7-7-7--5-5-5-5-5-5-5--5-5-5-5--3-3--0-|
D|-7-7-7-7-----------5-5-5-5--0-0---0---|-7-7-7-7-7-7-7-----------------5-5-5-5---------|

e|---------------------------------|-------------------------|
B|---------------------------------|-------------------------|
G|---------------------------------|-------------------------|
D|-3-3-3-3-3--5-5-5-5-5--2-2-2-2-2-|-7-7-7/5-----------------|
A|-1-1-1-1-1--3-3-3-3-3--0-0-0-0-0-|-5-5-5/3--5-5-5-5--7-7-7-|
D|---------------------------------|----------3-3-3-3--5-5-5-|

e|-----------------|------------------|
B|-----------------|------------------|
G|-----------------|------------------|
D|-10-10-12--9/10--|--10-10-17--15-14-|
A|--8--8-10--7/-8--|---8--8-15--13-12-|
D|-----------------|------------------|

e|------------------------------------------|---------------------------------|
B|------------------------------------------|---------------------------------|
G|------------------------------------------|---------------------------------|
D|-3-3-3-3-3--5-5-5-5-5--2-2-2-2-2--7-7-7/5-|-------------------------------7-|
A|-1-1-1-1-1--3-3-3-3-3--0-0-0-0-0--5-5-5/3-|-5-5-5-5-5-5-5--7-7-7-7-7-7-7--5-|
D|------------------------------------------|-3-3-3-3-3-3-3--5-5-5-5-5-5-5----| 

[Solo]
e|----------------13--18-18-17-17-15-15----------------15-|-15-15------------------------------|
B|--------------13----------------------18-18-17-17-18----|-------18-18-17-17-15-18--18-17-15--|
G|------------14------------------------------------------|------------------------------------|
D|----7-10-7/---------------------------------------------|------------------------------------|
A|-5/8----------------------------------------------------|------------------------------------|
D|--------------------------------------------------------|------------------------------------|

e|------------17--15---|--------------------------|
B|------15--15--15--15-|-18-15--17-17-18-18-18-15-|
G|-15-17---------------|--------------------------|
D|---------------------|--------------------------|
A|---------------------|--------------------------|
D|---------------------|--------------------------|

[Chorus]
e|----------------------------|
B|----------------------------|
G|----------------------------|   (4x) (repeat) 
D|----------------------------|
A|----------------------------|
D|-0-0-0--0-0-1--1-1-2--2-2-1-|

e|----------------------------|
B|----------------------------|
G|----------------------------|
D|-7-7-7--8-8-8--9-9-9--8-8-8-|    (3x) (repeat)
A|-5-5-5--6-6-6--7-7-7--6-6-6-|
D|----------------------------|

e|---------------------------------|-------------------------|
B|---------------------------------|-------------------------|
G|---------------------------------|-------------------------|
D|-3-3-3-3-3--5-5-5-5-5--2-2-2-2-2-|-7-7-7/5-----------------|
A|-1-1-1-1-1--3-3-3-3-3--0-0-0-0-0-|-5-5-5/3--5-5-5-5--7-7-7-|
D|---------------------------------|----------3-3-3-3--5-5-5-|

e|-----------------|------------------|
B|-----------------|------------------|
G|-----------------|------------------|
D|-10-10-12--9/10--|--10-10-17--15-14-|
A|--8--8-10--7/-8--|---8--8-15--13-12-|
D|-----------------|------------------|

e|---------------------------------|-----------------------------|
B|---------------------------------|-----------------------------|
G|---------------------------------|-----------------------------|
D|-3-3-3-3-3--5-5-5-5-5--2-2-2-2-2-|-7-7-7/5---------------------|
A|-1-1-1-1-1--3-3-3-3-3--0-0-0-0-0-|-5-5-5/3--5-5-5-5-5--7-7-7-7-|
D|---------------------------------|----------3-3-3-3-3--5-5-5-5-|

e|----------------|-------------------|
B|----------------|-------------------|
G|----------------|-------------------|
D|-10-10-10-10-10-|-17-17-17-17-17-17-|
A|--8--8--8--8--8-|-15-15-15-15-15-15-|
D|----------------|-------------------|

e|---------------------------------|---------------------------|
B|---------------------------------|---------------------------|
G|---------------------------------|---------------------------|
D|-3-3-3-3-3--5-5-5-5-5--2-2-2-2-2-|-7-7-7/5-------------------|
A|-1-1-1-1-1--3-3-3-3-3--0-0-0-0-0-|-5-5-5/3--5-5-5-5--7-7-7-7-|
D|---------------------------------|----------3-3-3-3--5-5-5-5-|

e|----------------------|--------------------|
B|----------------------|--------------------|
G|----------------------|--------------------|
D|-10-10-10-10--9-9-9-9-|-10-10-10-10--17-17-|
A|--8--8--8--8--7-7-7-7-|--8--8--8--8--15-15-|
D|----------------------|--------------------|

e|---------------------------------|---------------------------|
B|---------------------------------|---------------------------|
G|---------------------------------|---------------------------|
D|-3-3-3-3-3--5-5-5-5-5--2-2-2-2-2-|-7-7-7/5-------------------|
A|-1-1-1-1-1--3-3-3-3-3--0-0-0-0-0-|-5-5-5/3--5-5-5-5--7-7-7-7-|
D|---------------------------------|----------3-3-3-3--5-5-5-5-|

e|------------------------------------------|-------------|
B|------------------------------------------|-------------|
G|------------------------------------------|-------------|
D|-7-7-7-7-7-7--5-5-5-5-5-5-----------------|-7-7--5-5--3-|
A|-5-5-5-5-5-5--3-3-3-3-3-3--5-5-5-5-5-5--7-|-5-5--3-3--1-|
D|---------------------------3-3-3-3-3-3--5-|-------------|


***********************************

| PM  Palm muting
| /   Slide-up
| \   Slide down

***********************************
Suggest correction
Creating personal tab
Creating personal tab
You can edit any tab online and save it as your Personal.

You can edit, replace or remove any tab part or add personal notes – all changes will be seen only by you.

Personal tabs can be accessed anytime from any device, even offline.
Learn more »
Give kudos to tab author, rate the tab!
1 2 3 4 5
comments
print report bad tab
guest
You may want to rate the tab now too:
select rating
Wanna post a correction for this tab? Suggest correction