Oops, an error
Loading. Please wait.

K-On - Cagayake Girls Bass Tab

version 1
version 1

Whole song

Interactive

51,315 views 54 this week
no commentswrite comment
1 2 3 4 5
excellent!
x 13
add to favorites
launch autoscroll
font size
0
reset
guitar tuner
Tab Pro tools
  • play this tab
  • loop segment
  • change instrument
  • show fretboard
  • metronome
×
Best way to learn
"K-on - Cagayake Girls"
Autoscroll
slow
fast
+/-
esc
set tempo
stop
Difficulty
intermediate
---------------------------------------------------------------------------
CAGAYAKE! GIRLS - From “K-On!”
---------------------------------------------------------------------------

Tuning:EADG

You can hear during the interlude that this is played on a 5-string, but I arranged on a 4-string to keep
it more faithful to the show. *shrug*

INTRO (0:00-0:18)
G|-----------------------------------------------------7---|
D|---------------------------------------------------------|
A|-0-4-7-----6-9-7-7--7-9-7-9-7--0-4-7-----6-9-3-3--/5---5-| x2
E|-------5-7---------------------------5-7-----------------|

(0:19-0:24)
G|----------/9-7-------------|
D|---------------9-8-7-5-----|
A|-7\--------------------7-5-|
E|---------------------------|

(0:25-0:30) *SLAP*
G|-------------------------9---9-------------------9---8---7---|
D|-------------------------------------------------------------|
A|-----------5-7-----5-7-7---7--------------5-7-/7---6---5---0-|
E|-12\-0-5-7-----0-x--------------12\-0-5-7--------------------|

VERSE A (0:31-0:52)
G|--------------------------------------------|
D|---9-7-9-7-6------------9-7-9-7-6---7-6-----|
A|-7-----------7-7-7-7--7-----------7-----7-7-| x4
E|--------------------------------------------|

VERSE B (0:53-1:05)
G|----------------------------------------------|
D|----------------------------------------------|
A|-0-0-0-/12-0-12-12\--------/14-12-11----------|
E|---------------------7-7-7-----------12-11-12-|

G|----------------------------------------------|
D|----------------------------------------------|
A|-0-0-0-/12-0-12-12\--------/14-14-14-14-14-14-|
E|---------------------7-7-7--------------------|

1:06-1:33 REPEAT INTRO

VERSE C (1:34-1:39)
G|-9-9-9-9-9-9-9-------------------------------------------------|
D|---------------7-7-7-7-7-7-7-9-9-9-9-9-9-9---------------7-9---|
A|-------------------------------------------7-7-7-7-7-7-7-----7-|
E|---------------------------------------------------------------|

1:40-1:55 REPEAT VERSE A

VERSE D (1:56-2:08)

G|-----------------------------------------------|
D|-----------------------------------------------|
A|-0-0-0-/12-0-12-12\--------/14-12----14-12-----|
E|---------------------7-7-7--------14-------14\-|

G|-------------------------------------------------|
D|----------------11-------------------------------|
A|-0-0-0-/12-0-12----12\--------/14-14-14-14-14-14-|
E|------------------------7-7-7--------------------|

2:09-2:33 REPEAT INTRO

SOLOS (2:34-250)      |--> Slap (“Yui!”)
G|-/9-7------------------------------------------|
D|------9-8-7-5----------------------------------|
A|--------------7-5-------------5-7-------0-5-7--|
E|--------------------12\-0-5-7-----0-5-7--------|

(“Mugi!”)
G|--------------------------|
D|---------------------6----|
A|-------0-5-7-------7---7\-|
E|-0-5-7-------0-5-7--------|

(“Mio!”)
G|-------------------9-9-7---------|
D|-------------------------9-7-6-7-|
A|---7-7-5-------------------------|
E|-0-------7-5-4-5-0---------------|

(“Ritsu!”) *End Slap*
G|-----------------|
D|-----------------|
A|-----------------|
E|-12/-0-4-5-0-6-7-|

INTERLUDE (2:51-3:13)
G|---------------------------------------------|
D|---9-----------7-------------9-----------4---|
A|-7---7---9---5---5-0-0-5-6-7---7---9---5---0-| x2
E|-------7---7---------------------7---7-------|

G|---------------------------------------|
D|-------2-----------4-5-6---------------|
A|---4-----4-----6-----------------4-----|
E|-2---2-----2-4---4-------5-5-5-7---7-5-|

G|--------------------------------------------10-9-10-0-0------|
D|-----------------------------------------10------------------|
A|-------------------7-6---7-6---------/10---------------------|
E|-7-7-7-7-7-7-7-7-7-----7-----7-8-8-8--------------------8-8\-|

BRIDGE (3:14-3:26)
G|-------------------------------------|
D|-------------3~----------------------|
A|-11\--1~--3~----3~--1~--3~--4-4--6-6-|
E|-------------------------------------|

(3:27-3:37)
G|-------------------------------------------------------|
D|---0-3-----2-5-3-3-3-5-3-5-3---0-3-----2-5--------8----|
A|-1-----1-3-------------------1-----1-3-----4-4-/6---6--| x2
E|-------------------------------------------------------|

OUTRO (3:38-END) *SLAP*
G|-------------------|
D|----0----0----0----|
A|-------------------| x6
E|-13---10---11---12-|

G|----------------------------------------|
D|---0----0----0----0----0----0----0----0-|
A|-8---10---12---13---15---17---18---19---|
E|----------------------------------------|

G|-----------------------------|
D|-------------3-------------3-|
A|-8-8-3-3-3-5---5-5-5-3-3-5---|
E|-----------------------------|

G|-----------------------------5-|
D|-------------3-----------6-8---|
A|-8-8-3-3-3-5---5-5-5-3-3-------|
E|-------------------------------|

G|-----------------------------|
D|-------------3-------------3-|
A|-8-8-3-3-3-5---5-5-5-3-3-5---|
E|-----------------------------|

G|--------------10-8----10-8------------------|
D|-------------------10------8-10-------------|
A|-8-8-10-10-11--------------------8--8--8-8~-|
E|--------------------------------------------|


| .  palm mute
| “  tremolo pick
| *  pinch harmonic
| ~  let note ring
| /  slide up
| \  slide down
| h  hammer-on
| p  pull-off
| v  vibrato
| +  natural harmonic
| x  mute note
=============================================================
comments
print report bad tab
I want to post or [tab]
guest
You may want to rate the tab now too:
select rating
Please do not post tabs as comments. Select "correction" instead!