Oops, an error
Loading. Please wait.

Linked Horizon - Guren No Yumiya Tab

version 1
version 1

Whole song

Interactive

29,417 views 12 this week
no commentswrite comment
1 2 3 4 5
x 6
add to favorites
launch autoscroll
font size
0
reset
how to read this tab
guitar tuner
×
Best way to learn
"Linked Horizon - Guren No Yumiya"
Autoscroll
slow
fast
+/-
esc
set tempo
stop
Author
Difficulty
  follow
intermediate
Tempo - 92
                                    
       
e|-------------------------------|--4-----------------------|
B|------5-4-----------5----------|--5-----------------------|
G|--6-6------4-4-6--6---8--------|--6-----------------------|
D|--6------------7---------9---9-|--6----4------------------|
A|--4------------7-----------9---|--4--7----6--7--4--6------|
E|---------------5------7--7-----|----------------------7---|

e|--4-----------------------|--7--------------------------|
B|--5-----------------------|--8--------------------------|
G|--6-----------------------|--9--------------------------|
D|--6----4------------------|--9-----7--------------------|
A|--4--7----6--7--6--4------|--7--10----9--10--7--9-------|
E|----------------------7---|------------------------10---|

e|--7--------------------------|-------------|--------------------------|
B|--8--------------------------|-------------|--------------------------|
G|--9-----------------------4--|--L----------|--------------------------|
D|--9-----7-----------------4--|--L----------|--------------------------|
A|--7--10----9--10--9--7--6-6--|--L----------|--6----4------------------|
E|--------------------------7--|--L-------4--|--4--7----6--7--4--6--2---|

e|--------------------------|--------------------------|
B|--------------------------|--------------------------|
G|--------------------------|--------------------------|
D|--------------------------|--------------------------|
A|--6----4------------------|--6----4------------------|
E|--0--7----6--7--6--4--2---|--4--7----6--7--4--6--2---|

e|--------------------------|----------------------------------|
B|--------------------------|--4-------------------------------|
G|--------------------------|------4-6-------4-----------------|
D|--------------------------|--6---------8-------6---8---4-----|
A|--6----4------------------|--6-6---------------------------4-|
E|--0--7----6--7--6--4--2---|--4---4---4---4---4---4---4---2---|

e|----------------------------------|----------------------------------|
B|--4-------------------------------|--4-------------------------------|
G|------4-6-------4-----------------|------4-6-------4-----------------|
D|--6---------8-------8---6---4-----|--6---------8-------6---8---4-----|
A|--6-6---------------------------4-|--6-6---------------------------4-|
E|--0---0---0---0---0---0---0---2---|--4---4---4---4---4---4---4---2---|

e|---------------------------------|-------------------------------|
B|--4------------------------------|-------------------------------|
G|------4-6-------4----------------|-------------3-4-3-------------|
D|--6---------8-------8---6---4----|--6----6---6-------6-4---------|
A|--6-6----------------------------|---------------------------6-6-|
E|--0---0---0---0---0---0---0---2--|--0--0---0---0---0---0--0------|

e|------------------------------|-----------------------------|
B|----------------------------5-|--L-----------4--------------|
G|-----------------------5----6-|--L-6-6----6-----4-4----4--6-|
D|--6----6-8----8-9----9----6---|--------6------------4-----7-|
A|--6--6---9--9---9--9---3----4-|--L-4---------2------------7-|
E|--4------6------7-------------|---------------------------5-|

e|------------------------------|-------------------------------|
B|------------------------------|------5-4------2--2-5-4--------|
G|--L-6--6----6--6----5-5-------|--6-6------4-4-2------2--4-----|
D|--L------7--------6---6-------|--6------------2------2----2---|
A|--L-7--7----7---------6-------|--4-----4------0------0------2-|
E|--L-5-------5--4--4---4-4-4-4-|-------------------------------|

e|------------------------------|-------------------------------|
B|--2-2-5-4--2---2---0----0-----|------5-4------2--2-5-4--------|
G|--4----------4-------1--------|--6-6------4-4-2------2--4-----|
D|--4------------2--------2-----|--6------------2------2----2---|
A|--2-----2------2----------2---|--4-----4------0------0------2-|
E|---------------0-----0------0-|-------------------------------|

e|------------------4---2----|-------------------------------|
B|--2-2-5-4--2------5---4----|------5-4------2--2-5-4--------|
G|--4-----------4-4-4---4----|--6-6------4-4-2------2--4-----|
D|--4---------------2---4----|--6------------2------2----2---|
A|--2-----2-------------2----|--4-----4------0------0------2-|
E|--------------0------------|-------------------------------|

e|------------------------------|-------------------------------|
B|--2-2-5-4--2---2---0----0-----|------5-4------2--2-5-4--------|
G|--4----------4-------1--------|--6-6------4-4-2------2--4-----|
D|--4------------2--------2-----|--6------------2------2----2---|
A|--2-----2------2----------2---|--4-----4------0------0------2-|
E|---------------0-----0------0-|-------------------------------|

e|-----------------|--4-------------------------------|
B|--2-2-5-4--2---2-|------5-7---4---5-------4---------|
G|--4----------4---|--6-----------------6-------4-----|
D|--4--------------|----------------------------------|
A|--2-----2------2-|--4-4-4---4---4---4---4---4---2-2-|
E|-----------------|----------------------------------|

e|--4-------------------------------|--7--------------------------------|
B|------5-7---4---5---4-------------|------8-10---7---8-------7---------|
G|--6---------------------6---4-----|--9------------------9-------7-----|
D|----------------------------------|--9----------------------------0-0-|
A|--4-4-4---4---4---4---4---4---2-2-|-----------------------------------|
E|----------------------------------|--0-0-0----0---0---0---0---0-------|

e|--7--------------------------------|--7--------------------------------|
B|------8-10---7---8---7-------------|------8-10---7---8-------7---------|
G|--9----------------------9---7-----|--9------------------9-------7-----|
D|--9----------------------------0-0-|-----------------------------------|
A|-----------------------------------|--7-7-7----7---7---7---7---7---5-5-|
E|--0-0-0----0---0---0---0---0-------|-----------------------------------|

e|--7--------------------------------|
B|------8-10---7---8---7-------------|
G|--9----------------------9---7-----|
D|-----------------------------------|
A|--7-7-7----7---7---7---7---7---5-5-|
E|-----------------------------------|

e|--10--------------------------------------------|
B|--------11-13----10----11----------10-----------|
G|--12-------------------------12----------10-----|
D|------------------------------------------------|
A|--10-10-10----10----10----10----10----10----8-8-|
E|------------------------------------------------|

e|--10------------------------------|--3----------------||
B|--------11-13----10-11---L--------|--3----------------||
G|--12------------------------------|--3----------------||
D|----------------------------------|--5----------------||
A|--10-10-10----10----10---L--------|--5----------------||
E|----------------------------------|--3----------------||



************************************

| L tide note

************************************
Suggest correction
comments
print report bad tab
guest
You may want to rate the tab now too:
select rating
Wanna post a correction for this tab? Suggest correction