Oops, an error
Loading. Please wait.

Lion King - Lion Sleeps Tonight Tab

version 1
version 1

Intro

Whole song

Interactive

29,726 views 63 this week
3 commentsread comments
1 2 3 4 5
accurate
x 14
add to favorites
launch autoscroll
font size
0
reset
how to read this tab
guitar tuner
Autoscroll
slow
fast
+/-
esc
set tempo
stop
Help us to improve Ultimate-Guitar.com Take our survey!
×
Author
This is my first guitar tab and im just adding on 2 xtrepidation's tab :)

e|-0-2-4-2-4-5-4-2-0-2-4-2-0-4-2~-|-7-4-2-0-2-5-4-2-0-2-4-2-0-4-2~| 
B|--------------------------------|-------------------------------|
G|--------------------------------|-------------------------------|
D|--------------------------------|-------------------------------|
A|--------------------------------|-------------------------------|
E|--------------------------------|-------------------------------|
In the jungle the mighty jungle     In the jungle the mighty jungle
the lion sleeps tonight             The lion sleeps tonight

I couldnt really get the perfect notes for the Aweeee... part :P
Suggest correction
comments
print report bad tab
3 comments total.
0 reply
Eldt 10 wrote on December 6 2011, 02:17 pm

If played like this, the "wee"-part starts on a high B - e-string 19th fret. Then moves down an A (17th fret). Then to a G# (16th fret) and then down to your B (7th fret again).

So something along the lines of
19----17-----19-17----16-7

You can work the pattern out yourself probably

0 reply
Eldt 10 wrote on December 6 2011, 02:21 pm

Ok nvm, that's one octave up I think.

It should be something like this I think...


e|7---5-7-5-4-----------------------------------------
B|--------------------------------------------------
G|-------------4-------------------------------------

+1 reply
monet13 10 wrote on May 9 2013, 10:47 pm

e|-0-2-4-2-4-5-4-2-0-2-4-2-0-4-2~-|-7-4-2-4-7-5-4-2-0-2-4-2-0-4-2~|
B|--------------------------------|-------------------------------|
G|--------------------------------|-------------------------------|
D|--------------------------------|-------------------------------|
A|--------------------------------|-------------------------------|
E|--------------------------------|-------------------------------|

Just edited the second part a bit but good job man

guest
You may want to rate the tab now too:
select rating
Wanna post a correction for this tab? Suggest correction