Oops, an error
Loading. Please wait.

Mulan - Ill Make A Man Out Of You Bass Tab

version 1
version 1

Whole song

Interactive

12,201 views 9 this week
1 commentread comment
1 2 3 4 5
excellent!
x 4
add to favorites
launch autoscroll
font size
0
reset
guitar tuner
Tab Pro tools
  • play this tab
  • loop segment
  • change instrument
  • show fretboard
  • metronome
×
Best way to learn
"Mulan - Ill Make A Man Out Of You"
Autoscroll
slow
fast
+/-
esc
set tempo
stop
Contributor
Epic song
the timing is a little odd but if you listen to it while you play, you'll get the hang of it

Verse pt. 1
G--------------------------------|
D--------------------------------|
A----------------------3~---5-5~-|
E--0-0-2-2-3-3~----3-5-----------|

Verse pt. 2
G----------------------------------|
D----------------------------------|
A----------------------------------|
E--0-0-0-0-0-0-0-0-2-2-2-2-2-2-2-2-|

G--------------------------------|
D--------------------------------|
A---------------3--3-3-3-3-3-3-3-|
E-3-3-3-3-3-3-3------------------|

Verse pt. 3
G----------------------------------|
D----------------------------------|
A--3-3-3-3-3-3-3-3-5-5-5-5-5-5-5-5-|
E----------------------------------|

Pre Verse
G------------------|
D------------------|
A-7----5----5----7-|
E------------------|

Bridge
G-------------------------------------------|
D-------------------------------------------|
A--3---3-5---5-6---6-7---7-9---9-10---10-3~-|
E-------------------------------------------|

Chorus
G----------------------------------|
D----------------------------------|
A--3-3-3-3-5-5-5-5-6-6-6-6-7-7-7-7-|
E----------------------------------|

The next part is the same exact thing, only a half step sharp

Sharp Verse pt. 1
G--------------------------------|
D--------------------------------|
A----------------------4~---6-6~-|
E--1-1-3-3-4-4~----4-6-----------|

Sharp Verse pt. 2
G-----------------------------------|
D-----------------------------------|
A-----------------------------------|
E--1-1-1-1-1-1-1-1-3-3-3-3-3-3-3-3--|
G-----------------------------------|
D-----------------------------------|
A---------------4--4-4-4-4-4-4-4----|
E-4-4-4-4-4-4-4---------------------|

Sharp Verse pt. 3
G----------------------------------|
D----------------------------------|
A--4-4-4-4-4-4-4-4-6-6-6-6-6-6-6-6-|
E----------------------------------|

Sharp Chorus
G----------------------------------|
D----------------------------------|
A--4-4-4-4-6-6-6-6-7-7-7-7-8-8-8-8-|
E----------------------------------|

Outro
G-------------------|
D-------------------|
A--8----6----6----8-|
E-------------------|

The song is played in this order

Verse pt 1 x2
Verse pt 2
Verse pt 3

Pre Verse

Verse pt 1 x2
Verse pt 2
Verse pt 3

Bridge x2

Chorus x3 followed by Verse pt 3

Sharp Verse pt 1 x2
Sharp Verse pt 2
Sharp Verse pt 3

Chorus x3 followed by Verse pt 3

Here theres a vocal chorus, at the end of which
the Outro is played
comments
print report bad tab
1 comment total.
0 reply
ryblaster wrote on November 6 2013, 08:17 pm

i guess its the best bass tab because its the only bass tab lol

I want to post or [tab]
guest
You may want to rate the tab now too:
select rating
Please do not post tabs as comments. Select "correction" instead!