Oops, an error
Loading. Please wait.

My Little Pony Friendship Is Magic - Smile Tab

6,171 views 6 this week
no commentswrite comment
1 2 3 4 5
accurate
x 3
add to favorites
launch autoscroll
font size
0
reset
how to read this tab
guitar tuner
Autoscroll
slow
fast
+/-
esc
set tempo
stop
Help us to improve Ultimate-Guitar.com Take our survey!
×
Author
Difficulty
Tuning
intermediate
D# G# C# F# A# D#
howdy bronies!
Here is the amazing song from S02E18 - A friend in deed
It's my secound tab ever, hope you enjoy it:D

if you have any questions, feel free to email me

email: david@rinmans.se


TUNING: Half-step down[Eb, Ab, Db, Gb, Bb, eb]


~~Intro~~

Rythm guitar
eb|-----------------------------------------------------------------|
Bb|-----------------------------------------------------------------|
Gb|---------------------------1--1-----------------------------1--2-|
Db|-2---2---2---2---2---2-----2--2---2---2---2---2---2---2-----2--2-|
Ab|-x---x---x---x---x---x---2--------x---x---x---x---x---x----------|
Eb|-0---0---2---2---4---4------------0---0---2---2---4---4---2------|

Lead Guitar banjo(?)
eb|-12----11--------------------------------------------------------|
Bb|-------------12---12------12-------------------------------------|
Gb|---------------------11-13--13-11-9-----9-----9-----9-9-----9--9-|
Db|----------------------------------------------9-------9-h11------|
Ab|-----------------------------------------------------------------|
Eb|-----------------------------------------------------------------|


~~Verse~~
(repeat twice)

eb|-----------------------------------------------------------------|
Bb|-----------------------------------------------------------------|
Gb|---------------------------1--1-----------------------------1--1-|
Db|-2---2---2---2---2---2-----2--2---2---2---2---2---2---2-----2--2-|
Ab|-x---x---x---x---x---x---2--------x---x---x---x---x---x----------|
Eb|-0---0---2---2---4---4------------0---0---2---2---4---4---2------|

eb|-----------------------------------------------------------------|
Bb|----------------------------------------------------4---4---4--4-|
Gb|---------------------------1--1---------------------4---4---4--4-|
Db|-6---6---4---4---9---9-----2--2----------------------------------|
Ab|-4---4---2---2---7---7------------7---7---7---7-7-2-----2--------|
Eb|-------------------------4--------5---5---5---5-5----------------|


~~Chorus~~


eb|-----------------------------------------------------------------|
Bb|------------------------------------------------------4----4-4-4-|
Gb|--------------------------------------6-----6-6-6-----4----4-4-4-|
Db|-6-----4-------9----------------------7-----7-7-7----------------|
Ab|-4-----2-------7-------5--------------------------2--------2-2-2-|
Eb|-----------------------4--------4/5---5-----5-5-5----------------|

x2 
                                                            (syncope)
eb|-----------------------------------------------------------------|
Bb|----------------------------------------------------4--4--4------|
Gb|--------------------------------------6-----6-6-6---4--4--4------|
Db|-6-----4-------9----------------------7-----7-7-7------------2---|
Ab|-4-----2-------7-------5--------------------------2----------x---|
Eb|-----------------------4--------4/5---5-----5-5-5------------0---|


~~Interlude~~


eb|----------------------------------|
Bb|----------------------------------|
Gb|---------------------------1--1---|
Db|-2---2---2---2---2---2-----2--2---|
Ab|-x---x---x---x---x---x---2--------|
Eb|-0---0---2---2---4---4------------|


>Verse


~~Bridge~~


eb|-------------------|
Bb|-4--4--4-4-4-4-4---|
Gb|-4--4--4-4-4-4-4---|
Db|-------------------|
Ab|-2--2--2-2-2-2-2---|
Eb|-------------------|


>Chorus


~~Stick~~

eb|-----------------------------------------5-----------------------|
Bb|--------------------------------------------------------4h5p4----|
Gb|---------9---------------8-----------2------2-------4--------4---|
Db|-----9-------9-------9-------9-----------------------------------|
Ab|-7---------------6---------------0--------------2----------------|
Eb|-----------------------------------------------------------------|

eb|---------2-------4-------4-------0-------4---------------2-------|
Bb|---------2-------5-------5---------------5-----------------------|
Gb|-----2-------2-------------------6-------------------4-------4---|
Db|-4-------------------2-------2-----------------------------------|
Ab|-------------------------------------4-------4---2---------------|
Eb|-----------------------------------------------------------------|

eb|-----------------------------------------------------------------|
Bb|-----------------------------------------------------------------|
Gb|-----------------------------------------------------------------|
Db|-2---2---2---2---4---4---4---4---6---6---6---6---7---7---7---7---|
Ab|-0---0---0---0---2---2---2---2---4---4---4---4---5---5---5---5---|
Eb|-----------------------------------------------------------------|

eb|-----------------------------------------------------------------|
Bb|-----------------------------------------------------------------|
Gb|-----------------6---6---6---6-----------------------4---4-------|
Db|-2---2---2---2---4---4---4---4-----------1---2---4---------------|
Ab|-0---0---0---0-------------------2---4---------------------------|
Eb|-----------------------------------------------------------------|

>Verse Line 1

>Chorus

>Bridge


~~Coda(2/4)~~


:REMEMBER:
----------
the following chords are written with the fact that the guitar is
tuned a half-step down in consideration. 
The chords within parenthesis are how the chords look on a
regualar-tuned guitar.
----------
:REMEMBER:

1st part:
Eb(E) / Fm(F#m) / Gm(Abm) / G#(A) x4

2nd part (key raise 1/2 step):
E(F) / F#m(Gm) / Abm(Am) / A(Bb) x2

3rd part:
Just play an A(B) w/ the top three strings and keep on adding more 
over time

4th part(raised intro alternative):
eb|---------------------------------|
Bb|---------------------------------|
Gb|---------------------------------|
Db|-3---3---3---3---3---3---3---5---|  x2
Ab|-x---x---x---x---x---x---1---3---|
Eb|-1---1---3---3---5---5-----------|

End Chord
(pause) - E(F)


Thanks for playing! If there are any mistakes, feek fre to comment or
email!
Suggest correction
Give kudos to tab author, rate the tab!
1 2 3 4 5
comments
print report bad tab
guest
You may want to rate the tab now too:
select rating
Please do not post tabs as comments. Select "correction" instead!