Oops, an error
Loading. Please wait.

My Little Pony Friendship Is Magic - So Many Wonders Tab

2,651 views 6 this week
no commentswrite comment
1 2 3 4 5
accurate
x 5
add to favorites
launch autoscroll
font size
0
reset
how to read this tab
guitar tuner
Tab Pro tools
  • play this tab
  • loop segment
  • change instrument
  • show fretboard
  • metronome
Autoscroll
slow
fast
+/-
esc
set tempo
stop
Contributor
                   So Many Wonders (From season 1 - episode 23)

Tuning: Standard

Ps. This is my first tab ever, I'm sure it's 100% accurate, if there's any problem, add 
a comment. Comments are appreciated!

What is this place...

e|-------0------0--1--3--3--0--5--3---------0-----0--1--3--3--0--5--6---------|
B|-1--3-----3-------------------------1--3-----3------------------------------|
G|----------------------------------------------------------------------------|
D|----------------------------------------------------------------------------|
A|----------------------------------------------------------------------------|
E|----------------------------------------------------------------------------|

Squirrels in their trees...

e|-6--3--------------1--1-------------6--3--------------1--1-----5--3--5--3~--|
B|-------4--1---3--4--------3--1------------4--1--3--4--------3---------------|
G|--------------------------------3-------------------------------------------|
D|----------------------------------------------------------------------------|
A|----------------------------------------------------------------------------|
E|----------------------------------------------------------------------------|

Ohhh what a magical place!

e|-3---3-3-5-3-0-----1--3--5-5--5--5-5-7-5-3-1---1--3--5--5--8--7-5-3-0-7-5---|
B|---------------1------------------------------------------------------------|
G|----------------------------------------------------------------------------|
D|----------------------------------------------------------------------------|
A|----------------------------------------------------------------------------|
E|----------------------------------------------------------------------------|

I'd have come here sooner...

e|-5-0-------1-2--2-3--5--7---3--------------8~-------------------------------|
B|-----3--5----------------------3--5--6--8-----------------------------------|
G|----------------------------------------------------------------------------|
D|----------------------------------------------------------------------------|
A|----------------------------------------------------------------------------|
E|----------------------------------------------------------------------------|
comments
print report bad tab
I want to post or [tab]
guest
You may want to rate the tab now too:
select rating
Please do not post tabs as comments. Select "correction" instead!