Oops, an error
Loading. Please wait.

My Little Pony Friendship Is Magic Theme Tab

version 1
version 1

Whole song

Interactive

49,918 views 69 this week
no commentswrite comment
1 2 3 4 5
accurate
x 10
add to favorites
launch autoscroll
font size
0
reset
how to read this tab
guitar tuner
Autoscroll
slow
fast
+/-
esc
set tempo
stop
Help us to improve Ultimate-Guitar.com Take our survey!
×
Author
Tabbed by: redslime
Email: osiel.6@gmail.com

Tuning: Standard EADGBe
I do not own this song or this cartoon. But the title song is great. 
As accurate as I could possibly make it. To me this sounds perfect. Enjoy!

Intro
e|---7-9p7-----11-----5-7p5-4--------------------------------|
B|---------11------------------5~-----7--7h9--9h10--10h12----|
G|-----------------------------------------------------------|
D|-----------------------------------------------------------|
A|-----------------------------------------------------------|
E|-----------------------------------------------------------|


e|-------------------------------------------------------2/5--5--2------2------|
B|---3--2/3-5--3-----7777------5--8--7b--5-----------3h5------------5-3---5----|
G|------------------------7-7--------------------------------------------------|
D|-----------------------------------------------------------------------------|
A|-----------------------------------------------------------------------------|
E|-----------------------------------------------------------------------------|


e|-------------------------------------------------------------------------7-55----|
B|---333-3--10-12-10~----------5--5-7-5----3/5-7-3--3/10-12-10----55-5-5-7---------|
G|---------------------4444-4------------------------------------------------------|
D|---------------------------------------------------------------------------------|
A|---------------------------------------------------------------------------------|
E|---------------------------------------------------------------------------------|


Outro
e|-----------------------2/5--5--2------2----------|
B|---355--4-5-7-5----3-5------------5-3-----3~-----|
G|-------------------------------------------------|
D|-------------------------------------------------|
A|-------------------------------------------------|
E|-------------------------------------------------|
Suggest correction
comments
print report bad tab
guest
You may want to rate the tab now too:
select rating
Please do not post tabs as comments. Select "correction" instead!