Oops, an error
Loading. Please wait.

Naruto - The Rising Fighting Spirit Tab

version 2
version 2

Whole song

  • Includes all parts of the song playable on guitar.

Interactive

67 views 9 this week
no commentswrite comment
1 2 3 4 5
3 more votes to show rating
add to favorites
launch autoscroll
font size
0
reset
how to read this tab
guitar tuner
Autoscroll
slow
fast
+/-
esc
set tempo
stop
Help us to improve Ultimate-Guitar.com Take our survey!
×
Author
Difficulty
intermediate
About this tab version
Includes all parts of the song playable on guitar. Was this info helpful? Yes No
Title: The Rising Fighting Spirit
Artist: Toshiro Masuda
Album: Naruto OST
Author: Andreas Winter (@WolvDev)

YouTube link to song: https://youtu.be/mjjkHg5FOhk

[Intro]
[Distortion Guitar]
E||---------------------------------------------------|-------------------------------------|
B||---------------------------------------------------|-------------------------------------|
G||---------------------------------------------------|-------------------------7-----------|
D||---------------------------------------------------|-------------------------7-----7-----|
A||-------------------------0--2--0-------0-----------|-------------------------5-----7-----|
E||-0---0---0---2---0---0-------------3-------3---2---|-0---0---0---2---0---0---------5-----|

                                                                      Repeat 1x
E|---------------------------------------------------|-----------------------||
B|---------------------------------------------------|-----------------------||
G|---------------------------------------------------|-5----5----------------||
D|---------------------------------------------------|-5----5-----9----9-----||
A|-------------------------0--2--0-------0-----------|-3----3-----9----9-----||
E|-0---0---0---2---0---0-------------3-------3---2---|------------7----7-----||


[Flute]
E|-----------------------|---------------|-----------------------|--------------|
B|-------------7----8----|-7-------------|-------------7----8----|-10-----------|
G|-9------9--------------|--------7------|-9------9--------------|--------------|
D|-----------------------|---------------|-----------------------|--------------|
A|-----------------------|---------------|-----------------------|--------------|
E|-----------------------|---------------|-----------------------|--------------|


E|-8------8----10---8----|-7----------------------------|-7------------|
B|-----------------------|-------10--8---7----8----10---|--------------|
G|-----------------------|------------------------------|--------------|
D|-----------------------|------------------------------|--------------|
A|-----------------------|------------------------------|--------------|
E|-----------------------|------------------------------|--------------|


E|-----------------------|-----------------------|---------------|-----------------------|
B|-----------------------|-------------7----8----|-7-------------|-------------7----8----|
G|-5----5----------------|-9------9--------------|--------7------|-9------9--------------|
D|-5----5-----9----9-----|-----------------------|---------------|-----------------------|
A|-3----3-----9----9-----|-----------------------|---------------|-----------------------|
E|------------7----7-----|-----------------------|---------------|-----------------------|


E|--------------|-8------8----10---8----|-7----------------------------|-7------------|
B|-10-----------|-----------------------|-------10--8---7----8----10---|--------------|
G|--------------|-----------------------|------------------------------|--------------|
D|--------------|-----------------------|------------------------------|--------------|
A|--------------|-----------------------|------------------------------|--------------|
E|--------------|-----------------------|------------------------------|--------------|


E|-----------------------|-------------------------------------------|
B|-----------------------|-------------------------------------------|
G|-5----5-----7----7-----|-------------------------------------------|
D|-5----5-----7----7-----|-------------------------------------------|
A|-3----3-----5----5-----|-----2---0---2----2-------2---0---2----2---|
E|-----------------------|-0--------------------0--------------------|

[Shamisen (Japanese Guitar)]
E|----------------------------------------|----------------------------------------|
B|----------------------------------------|----------------------------------------|
G|----------------------------------------|----------------------------------------|
D|----------------------------------------|----------------------------------------|
A|-----2---0---2----2---2----0---0--------|------------------------------------2---|
E|-0----------------------------------0---|-3----0---3----0---3---3---0---3--------|


E|----------------------------------|-------------------------------------|
B|----------------------------------|-------------------------------------|
G|----------------------------------|-------------------0--------2--------|
D|-0--------------0----2--------2---|-2----2---0----2--------2--------2---|
A|------0----2----------------------|-------------------------------------|
E|----------------------------------|-------------------------------------|


E|-------------------------------------|-------------------------------------------------|
B|--------------0---0---0--------------|-3---3---3---3---0---3---0---3---0---3---0---3---|
G|-0-------------------------2----2----|-------------------------------------------------|
D|------2------------------------------|-------------------------------------------------|
A|-------------------------------------|-------------------------------------------------|
E|-------------------------------------|-------------------------------------------------|

                               [Flute again]
E|----------------------------|---------------------10----|-8-----7-------7------|
B|----------------------------|-8-----7---8---10----------|-----------10---------|
G|-9----9----9----9-----------|---------------------------|----------------------|
D|-9----9----9----9-----------|---------------------------|----------------------|
A|-7----7----7----7-----------|---------------------------|----------------------|
E|----------------------------|---------------------------|----------------------|


E|-12----10--8---7-----------|----------------------|---------------------10----|-8-----7-------7------|
B|---------------------8-----|-10----8---10--12-----|-8-----7---8---10----------|-----------10---------|
G|---------------------------|----------------------|---------------------------|----------------------|
D|---------------------------|----------------------|---------------------------|----------------------|
A|---------------------------|----------------------|---------------------------|----------------------|
E|---------------------------|----------------------|---------------------------|----------------------|


E|-12---10---8----7--------------|----------------------------|
B|---------------------10---8----|----------------------------|
G|-------------------------------|-9----9----9----9-----------|
D|-------------------------------|-9----9----9----9-----------|
A|-------------------------------|-7----7----7----7-----------|
E|-------------------------------|----------------------------|

[Outro]
[Distortion Guitar]
E||---------------------------------------------------|-------------------------------------|
B||---------------------------------------------------|-------------------------------------|
G||---------------------------------------------------|-------------------------7-----------|
D||---------------------------------------------------|-------------------------7-----7-----|
A||-------------------------0--2--0-------0-----------|-------------------------5-----7-----|
E||-0---0---0---2---0---0-------------3-------3---2---|-0---0---0---2---0---0---------5-----|

                                                                      Repeat 1x
E|---------------------------------------------------|-----------------------||
B|---------------------------------------------------|-----------------------||
G|---------------------------------------------------|-5----5----------------||
D|---------------------------------------------------|-5----5-----9----9-----||
A|-------------------------0--2--0-------0-----------|-3----3-----9----9-----||
E|-0---0---0---2---0---0-------------3-------3---2---|------------7----7-----||


E|-------------------------------|-------------------|
B|-------------------------------|-------------------|
G|-9----9----9----9----9----9----|-9-----------------|
D|-9----9----9----9----9----9----|-9-----------------|
A|-7----7----7----7----7----7----|-7-----------------|
E|-------------------------------|-------------------|
Suggest correction
Give kudos to tab author, rate the tab!
1 2 3 4 5
comments
print report bad tab
guest
You may want to rate the tab now too:
select rating
Wanna post a correction for this tab? Suggest correction