Oops, an error
Loading. Please wait.

Neon Genesis Evangelion - Cruel Angels Thesis Bass Tab

version 1
version 1

Whole song

Interactive

12,610 views 60 this week
2 commentsread comments
1 2 3 4 5
x 6
add to favorites
launch autoscroll
font size
0
reset
guitar tuner
Autoscroll
slow
fast
+/-
esc
set tempo
stop
Help us to improve Ultimate-Guitar.com Take our survey!
×
This is 5 pages long, thought I'd warn you in case you were going to
print it.

[Vocal intro]

[Intro]
   1 + + + 2 + + + 3 + + + 4 + + +   1 + + + 2 + + + 3 + + + 4 + + +
G|---------------------------------|---------------------------------|
D|-------------0-1-3-3---3-1-------|-------------0---1-1---1-1---0---|
A|-3---3---3-------------------3---|-1---1---1-----------------------|
E|---------------------------------|---------------------------------|


   1 + + + 2 + + + 3 + + + 4 + + +   1 + + + 2 + + + 3 + + + 4 + + +
G|---------------------------------|---------------------------------|
D|-------------0-1-3-3---3-1-------|---------------------------------|
A|-3---3---3-------------------3---|-1---1---0---1---1-------3-------|
E|---------------------------------|---------------------------------|

[Verse]
   1 + + + 2 + + + 3 + + + 4 + + +   1 + + + 2 + + + 3 + + + 4 + + +
G|---------------------------------|---------------------------------|
D|-1-------------------------------|---------------------------------|
A|---------------------------------|-1-------------------------------|
E|---------------------------------|---------------------------------|

   1 + + + 2 + + + 3 + + + 4 + + +   1 + + + 2 + + + 3 + + + 4 + + +
G|---------------------------------|---------------------------------|
D|---------------------------------|---------------------------------|
A|-3---------------1---------------|---------------------------------|
E|---------------------------------|-4-------------------------------|

   1 + + + 2 + + + 3 + + + 4 + + +   1 + + + 2 + + + 3 + + + 4 + + +
G|---------------------------------|---------------------------------|
D|---------------------------------|-1-------------------------------|
A|-1---------------1---------------|-----------------3---------------|
E|---------------------------------|---------------------------------|

   1 + + + 2 + + + 3 + + + 4 + + +   1 + + + 2 + + + 3 + + + 4 + + +
G|---------------------------------|-----------------0---------------|
D|-0-------------------------------|-----------------5---------------|
A|-5-------------------------------|---------------------------------|
E|---------------------------------|-3-------------------------------|

   1 + + + 2 + + + 3 + + + 4 + + +   1 + + + 2 + + + 3 + + + 4 + + +
G|---------------------------------|---------------------------------|
D|-1-------------------------------|---------------------------------|
A|---------------------------------|-1-------------------------------|
E|---------------------------------|---------------------------------|

   1 + + + 2 + + + 3 + + + 4 + + +   1 + + + 2 + + + 3 + + + 4 + + +
G|---------------------------------|---------------------------------|
D|---------------------------------|---------------------------------|
A|-3---------------1---------------|-4-------------------------------|
E|---------------------------------|---------------------------------|

   1 + + + 2 + + + 3 + + + 4 + + +   1 + + + 2 + + + 3 + + + 4 + + +
G|---------------------------------|---------------------------------|
D|---------------------------------|-1-------------------------------|
A|-1---------------1---------------|-----------------3---------------|
E|---------------------------------|---------------------------------|

   1 + + + 2 + + + 3 + + + 4 + + +   1 + + + 2 + + + 3 + + + 4 + + +
G|---------------------------------|-----------------0---------------|
D|-0-------------------------------|-----------------5---------------|
A|-5-------------------------------|---------------------------------|
E|---------------------------------|-3-------3---------------3-------|

[Bridge]
   1 + + + 2 + + + 3 + + + 4 + + +   1 + + + 2 + + + 3 + + + 4 + + +
G|---------------------------------|---------------------------------|
D|---------------------------------|---------------------------------|
A|---------------------------------|-----------------3---3---3-3-1-3-|
E|-4--4----4-4---4-4-4---4-4-4---4-|-3---3---3-3-1-3-----------------|

   1 + + + 2 + + + 3 + + + 4 + + +   1 + + + 2 + + + 3 + + + 4 + + +
G|---------------------------------|---------------------------------|
D|---------------------------------|-----------------1-1---1-1-1-----|
A|-----------------1-1-1-1-1-1-1-1-|-1---1---1-1---1-------------1---|
E|-1---1---1-1-1-1-----------------|-------------1-----------------3-|


   1 + + + 2 + + + 3 + + + 4 + + +   1 + + + 2 + + + 3 + + + 4 + + +
G|---------------------------------|---------------------------------|
D|---------------------------------|---------------------------------|
A|---------------------------------|-----------------3---3---3-3-1-3-|
E|-4--4----4-4---4-4-4---4-4-4---4-|-3---3---3-3-1-3-----------------|

   1 + + + 2 + + + 3 + + + 4 + + +   1 + + + 2 + + + 3 + + + 4 + + +
G|---------------------------------|---------------------------------|
D|---------------------------------|---------------------------------|
A|-5---5---5-5-5-5-5-5---5-5-5-5-5-|---------------------------------|
E|---------------------------------|-5---5---5-5-5-5-5-5---5-5-5-5-5-|

[Chorus]
    1 + + + 2 + + + 3 + + + 4 + + +   1 + + + 2 + + + 3 + + + 4 + + +
G||---------------------------------|---------------------------------||
D||*------------0-1-3-3---3-1-------|-------------0---1-1---1-1---0--*|| X2
A||*3---3---3-------------------3---|-1---1---1----------------------*||
E||---------------------------------|---------------------------------||

   1 + + + 2 + + + 3 + + + 4 + + +   1 + + + 2 + + + 3 + + + 4 + + +
G|---------------------------------|---------------------------------|
D|-------------0-1-3-3---3-1-------|-------------0---1-1---1-1---0---|
A|-3---3---3-------------------3---|-1---1---1-----------------------|
E|---------------------------------|---------------------------------|

   1 + + + 2 + + + 3 + + + 4 + + +   1 + + + 2 + + + 3 + + + 4 + + +
G|---------------------------------|---------------------------------|
D|-------------0-1-3-3---3-1-------|---------------------------------|
A|-3---3---3-------------------3---|-1---1---1---1---3---3---3---3---|
E|---------------------------------|---------------------------------|

   1 + + + 2 + + + 3 + + + 4 + + +   1 + + + 2 + + + 3 + + + 4 + + +
G|---------------------------------|---------------------------------|
D|-------------0-1-3-3---3-1-------|-------------0---1-1---1-1---0---|
A|-3---3---3-------------------3---|-1---1---1-----------------------|
E|---------------------------------|---------------------------------|

   1 + + + 2 + + + 3 + + + 4 + + +   1 + + + 2 + + + 3 + + + 4 + + +
G|---------------------------------|---------------------------------|
D|-------------0-1-3-3---3-1-------|---------------------------------|
A|-3---3---3-------------------3---|-1---1---0---1---1-------3-------|
E|---------------------------------|---------------------------------|

[Instrumental]
[Nightmare bass] - Improvise! :)
When floaty vocals come in:
   1 + + + 2 + + + 3 + + + 4 + + +   1 + + + 2 + + + 3 + + + 4 + + +
G|---------------------------------|---------------------------------|
D|---------------------------------|---------------------------------|
A|---------------------------------|---------------------------------|
E|-1--1------1-1-1-1---1-----1-1-1-|-3--3------3-3-3-3---3-----3-3-3-|

   1 + + + 2 + + + 3 + + + 4 + + +   1 + + + 2 + + + 3 + + + 4 + + +
G|---------------------------------|---------------------------------|
D|---------------------------------|---------------------------------|
A|---------------------------------|---------------------------------|
E|-4--4------4-4-4-4---4-----4-4-4-|-3--3------3-3-3-3---3-----3-3-3-|

   1 + + + 2 + + + 3 + + + 4 + + +   1 + + + 2 + + + 3 + + + 4 + + +
G|---------------------------------|---------------------------------|
D|---------------------------------|---------------------------------|
A|---------------------------------|---------------------------------|
E|-1--1------1-1-1-1---1-----1-1-1-|-3--3------3-3-3-3---3-----3-3-3-|

   1 + + + 2 + + + 3 + + + 4 + + +   1 + + + 2 + + + 3 + + + 4 + + +
G|---------------------------------|---------------------------------|
D|---------------------------------|---------------------------------|
A|---------------------------------|-1--1------1-1-1-1-------2-------|
E|-4--4------4-4-4-4---4-----4-4-4-|---------------------------------|


|The rest|
[Intro] x2
[Verse]
[Bridge]
[Chorus]
[Bridge]
[Chorus]

[LYRICS]
[Vocal intro]
Zankoku na tenshi no you ni
Shounen yo shinwa ni nare

[Instrument INTRO]

[Verse]
Aoi
Kaze ga ima
Mune no doa wo tataite mo
watashi dake wo
Tada mitsumete
hohoende'ru anata

Sotto
fueru mono
motomeru koto ni muchuu de
unmei sae
mada shiranai
itaike na hitomi

[Bridge]
Dakedo itsuka kidzuku deshou
sono senaka ni wa
haruka mirai mezasu tame no
hane ga aru koto

[Chorus]
Zankoku not tenshi no te-ze
madobe kara yagate tobitatsu
hotobashiru atsui patosu de
omoide wo uragiru nara
Kono sora wo daite kagayaku
shounen yo shinwa ni nare

[Instrumental] (For show intro sequence, end here)
[Floaty vocals]
[Intro]

[Verse]
Zutto
Nemutte'ru
Watashi no ai no yurikago
anata dake ga
yume no shisha ni
Yobareru asa ga kuru

Hosoi
kubisuji wo
tsukiakari ga utsushite'ru
sekai-juu no
toki wo tomete
tojikometai kedo

[Bridge]
moshimo futari aeta koto ni
imi ga aru nara
watashi wa sou jiyuu wo shiru
tame no0 baiburu

Zankoku na tenshi no te-ze
kanashimi ga soshite hajimaru
dakishimeta inochi no katachi
sono yume ni mezameta toki
dare yori mo hikari wo hanatsu
shounen yo shinwa ni nare

[Bridge]
Hito wa ai wo tsumugi nagara
Rekeshi wo tsukuru
megami nante narenai mam
watashi wa ikiru

[Chorus]
Zankoku na tenshi no te-ze
madobe kara yagate tobitatsu
hotobashiru atsui patosu de
omoide wo uragiru nara
Kono sora wo daite kagayaku
shounen yo shinwa ni nare
Suggest correction
comments
print report bad tab
2 comments total.
0 reply
iconic 40 Aug 29, 2013 12:26 PM

briliant, well done..tricky but great fun!

0 reply
lvl99paladin 10 Jun 13, 2016 01:34 AM

lol, I don't get why someone would need this but lol its accurate so whatever. Five stars I guess?????

guest
You may want to rate the tab now too:
select rating
Wanna post a correction for this tab? Suggest correction