Oops, an error
Loading. Please wait.

Nisemonogatari - Platinum Disco tab

1,117 views 12 this week
no commentswrite comment
1 2 3 4 5
x 4
add to favorites
×
Save as Personal and add changes to this tab that will be seen only by you. Learn more ›
×
You can save this tab as Personal to edit and correct it or add notes. All changes will be seen only by you. Learn more »
launch autoscroll
font size
0
reset
how to read this tab
guitar tuner
edit
Autoscroll
slow
fast
+/-
esc
set tempo
stop
About this tab version
This version is complete, not acoustic, easy and fun to play. Was this info helpful? Yes No
-intro

 e |---------------------------------------------------------------------------|
 B |------12--14--12--------9--7--9--7-----------------5--7--9--9--7-----7--7--|
 G |--13--------------------------------9--9--------6-----------------9--------|
 D |---------------------------------------------------------------------------|
 A |---------------------------------------------------------------------------|
 E |---------------------------------------------------------------------------|


 e |------------------------------------------------------------7--------------|
 B |------12--14--12--------9--7--9--7-----------------5--7--9-----9--7--------|
 G |--13--------------------------------9--9--------6--------------------9--9--|
 D |---------------------------------------------------------------------------|
 A |---------------------------------------------------------------------------|
 E |---------------------------------------------------------------------------|


-voice

 e |---------------------------------------------------------------------------|
 B |---------------------------------------------------------------------------|
 G |--9--9--9------9--------9--9--11--9----------------------------------------|
 D |-----------11--------------------------------------------------------------|
 A |---------------------------------------------------------------------------|
 E |---------------------------------------------------------------------------|


 e |---------------------------------------------------------------------------|
 B |------------------------------9--------------------------------------------|
 G |--9--9--9------9--------9--9-----9-----------------------------------------|
 D |-----------11--------------------------------------------------------------|
 A |---------------------------------------------------------------------------|
 E |---------------------------------------------------------------------------|


 e |---------------------------------------------------------------------------|
 B |-----------------------------9---------------------------------------------|
 G |----------------9--------11-----11--9--11----------------------------------|
 D |--9--11--9--11-------------------------------------------------------------|
 A |---------------------------------------------------------------------------|
 E |---------------------------------------------------------------------------|


 e |---------------------------------------------------------------------------|
 B |---------------------------------------------------------------------------|
 G |--9--9--9------9--------9--9--9--11--9-------------------------------------|
 D |-----------11--------------------------------------------------------------|
 A |---------------------------------------------------------------------------|
 E |---------------------------------------------------------------------------|


 e |---------------------------------------------------------------------------|
 B |---------------------------------9-----------------------------------------|
 G |--9--9--9------9--------9--9--9-----9--------------------------------------|
 D |-----------11--------------------------------------------------------------|
 A |---------------------------------------------------------------------------|
 E |---------------------------------------------------------------------------|

 e |---------------------------------------------------------------------------|
 B |--------------------9------------------------------------------------------|
 G |---------9------11-----11--9--9~-------------------------------------------|
 D |--9--11--------------------------------------------------------------------|
 A |---------------------------------------------------------------------------|
 E |---------------------------------------------------------------------------|


 e |---------------------------------------------------------------------------|
 B |-----------------------------------------------------------------------9---|
 G |--9--9------9--9--9--9--9--9--9--9--11--9-------------9--------/9--11------|
 D |--------11---------------------------------11--9--11-----------------------|
 A |---------------------------------------------------------------------------|
 E |---------------------------------------------------------------------------|


 e |---------------------------------------------------------------------------|
 B |---------------------------------------------------------------------------|
 G |--9--9------9----9--9--9--9--9--9--11--9------9--11--11---9--11--11--------|
 D |--------11--------------------------------11-------------------------------|
 A |---------------------------------------------------------------------------|
 E |---------------------------------------------------------------------------|


 e |---------------------------------------------------------------------------|
 B |----------------9--12~-----------------------------------------------------|
 G |--9--11--9--11-------------------------------------------------------------|
 D |---------------------------------------------------------------------------|
 A |---------------------------------------------------------------------------|
 E |---------------------------------------------------------------------------|


 e |---------------------------------------------------------------------------|
 B |---------9--11---------9---------------9--11-------------------------------|
 G |--8--11---------8--11-----------8--11---------8--11--11--------------------|
 D |---------------------------------------------------------------------------|
 A |---------------------------------------------------------------------------|
 E |---------------------------------------------------------------------------|


 e |---------------------------------------------------------------------------|
 B |--------------11--9------9--11---------------------------------------------|
 G |------8---11---------11----------------------------------------------------|
 D |--11-----------------------------------------------------------------------|
 A |---------------------------------------------------------------------------|
 E |---------------------------------------------------------------------------|


 e |------------------------------------------9--------------------------------|
 B |---------9--11---------9-----------9--11-----11----------------------------|
 G |--8--11---------8--11-------8--11----------------11------------------------|
 D |---------------------------------------------------------------------------|
 A |---------------------------------------------------------------------------|
 E |---------------------------------------------------------------------------|


 e |---------------------------------------------------------------------------|
 B |--------------11--9--------------------------------------------------------|
 G |------8---11----------11--11-----------------------------------------------|
 D |--11-----------------------------------------------------------------------|
 A |---------------------------------------------------------------------------|
 E |---------------------------------------------------------------------------|


 e |---------------------------------------------------------------------------|
 B |-----------------------------9--11--9--------------------------------------|
 G |------8-------8-------8--11------------------------------------------------|
 D |--11------11------11-------------------------------------------------------|
 A |---------------------------------------------------------------------------|
 E |---------------------------------------------------------------------------|


 e |---------------------------------------------------------------------------|
 B |------9-------9-------9--11p9----------------------------------------------|
 G |--11------11------11-----------8--11--11-----------------------------------|
 D |---------------------------------------------------------------------------|
 A |---------------------------------------------------------------------------|
 E |---------------------------------------------------------------------------|


 e |----------------------------------9--------------------------------------------------------------------|
 B |---------------------------9--11-----11--9-------------------------------------------------------------|
 G |------8------8------8--11-------------------11--8--11---8--8--11--11--13p11--13p11--11\----------------|
 D |--11-----11-----11-------------------------------------------------------------------------------------|
 A |-------------------------------------------------------------------------------------------------------|
 E |-------------------------------------------------------------------------------------------------------|


***********************************
| /   Slide up
| \   Slide down
| p   Pull-off
***********************************

            
            
Suggest correction
Creating personal tab
Creating personal tab
You can edit any tab online and save it as your Personal.

You can edit, replace or remove any tab part or add personal notes – all changes will be seen only by you.

Personal tabs can be accessed anytime from any device, even offline.
Learn more »
comments
print report bad tab
guest
You may want to rate the tab now too:
select rating
Wanna post a correction for this tab? Suggest correction