Oops, an error
Loading. Please wait.

Noir - Secret Game Tab

542 views 1 this week
no commentswrite comment
1 2 3 4 5
please rate
add to favorites
launch autoscroll
font size
0
reset
how to read this tab
guitar tuner
Autoscroll
slow
fast
+/-
esc
set tempo
stop
Help us to improve Ultimate-Guitar.com Take our survey!
×
Author
Difficulty
intermediate
secret game
tabbed by droid

  Q=60
 4/4
  Gtr I
|-3--6--5-----|-3-5-6-8---------|-----10---------|----------|
|-----------3-|---------10------|-8------10------|-8--------|
|-------------|--------------10-|-------------10-|----------|
|-------------|-----------------|----------------|----------|
|-------------|-----------------|----------------|----------|
|-------------|-----------------|----------------|----------|


|----6--5------|-3-5-6-8-------------|-----10---------|--------------|
|-8--8--6--3-3-|-3-3---8-10----------|-8----8-10------|-----------8--|
|-7----------7-|---------10-10----10-|-8------10---10-|-12-------12--|
|--------------|---------------12-12-|-------------10-|-12-----------|
|--------------|---------------------|----------------|--------------|
|--------------|---------------------|----------------|--------------|


|-11----10-----------|---------10------|
|--8--8----13-----11-|-13---13--8----8-|
|----------10--10----|-10---10-----7---|
|--------------------|-----------------|
|--------------------|-----------------|
|--------------------|-----------------|


|-11----10-----------|----------------------|
|-----8----13--10-11-|-13---13-15-----------|
|--8-------10--------|-14------15-14-12-12--|
|--------------------|------------------15--|
|--------------------|----------------------|
|--------------------|----------------------|


|--------10--8----6-|-8---8-10--------|-----6-5--3--|-8--6--5-----|
|-16--11----10--6---|-8---8--------10-|-8---8-6--4--|-4--8--7-----|
|-------------------|-------10--------|-8-----------|-------------|
|-13----------------|-----------12----|-------------|-------------|
|-------------------|-----------------|-------------|-------------|
|-------------------|-----------------|-------------|-------------|


|---------|-3--6--5-----|-3-5-6-8---------|-----10----------|
|---------|-3--8--6---3-|-3-3-3-8-10------|-8----8-10-------|
|---------|-----------7-|---------10---10-|-8------10---10--|
|---------|-------------|--------------12-|-------------10--|
|---------|-------------|-----------------|-----------------|
|---------|-------------|-----------------|-----------------|


|-----------------|----------------|-3-5-6-8---------|----10---------|
|-----------------|-----11--10---3-|-3-3-3-8-10------|-8---8--10-----|
|-12----------10--|-12--12--10---7-|---------10---10-|-8------10-----|
|-12---10-12------|-12-------------|--------------12-|---------------|
|-----------------|----------------|-----------------|---------------|
|-----------------|----------------|-----------------|---------------|


|----6--5-----|-3--------*|
|-8--8--6---6-|-3--------*|
|-8---------5-|----------*|
|-------------|----------*|
|-------------|----------*|
|-------------|----------*|

this is for tephanie...
hope you guys like it...
Suggest correction
Give kudos to tab author, rate the tab!
1 2 3 4 5
comments
print report bad tab
guest
You may want to rate the tab now too:
select rating
Please do not post tabs as comments. Select "correction" instead!