Oops, an error
Loading. Please wait.

One Piece - Binks Sake tab

version 4
version 4

Interactive

46,600 views 42 this week
4 commentsread comments
1 2 3 4 5
x 12
add to favorites
×
Save as Personal and add changes to this tab that will be seen only by you. Learn more ›
×
You can save this tab as Personal to edit and correct it or add notes. All changes will be seen only by you. Learn more »
launch autoscroll
font size
0
reset
how to read this tab
guitar tuner
edit
Autoscroll
slow
fast
+/-
esc
set tempo
stop
Author
Difficulty
intermediate
Bink's sake

e|--0---3-3-3-3------5--3---0---3------0---3-3-3-3-----5--3----0---------------------|
B|----------------------------------------------------------------1--0---------------|
G|------------------------------------------------------------------------2----------|
D|-----------------------------------------------------------------------------------|
A|--3-----------------------3----------3-----------------------3---------------------|
E|---------------3-----------------3----------------3--------------------------------|


e|---0---3-3-3-3-------5-3--0---3--------0---3-3-3-3--------5--3----0----------------|
B|---------------------------------------------------------------------1-------------|
G|-----------------------------------------------------------------------------------|
D|---------------------------------------0-------------------------------------------|
A|---3------------2---------1-------0-------------------------------3----------------|
E|-----------------------------------------------------3------------------3----------|



e|--3---0------------------------3--0------------------------------------------|
B|----------3--1-------0--1------1----3--1------1-----------1------------------|
G|-------------------------------0-----------------0------------0--------------|
D|-----------------3-------------2-----------3----------3----------------------|
A|--3----------------------------3-----------------3------------3--------------|
E|-----------------------------------------------------------------------------|


e|------------1----0---00------------------------------------------------------|
B|------0--1-------3---------3-1---1-------------------------------------------|
G|-----------------2-----------------------------------------------------------|
D|---3-------------0---------------------0--0----------------------------------|
A|---------------------------------------2--0----------------------------------|
E|---------------------------------3-----3-------------------------------------|



e|--3---0-------------------3--0--------------------------------------1----0---|
B|---------3--1-------0-1---1----3--1------1---------1------------0-1------3---|
G|--------------------------0-----------------0----------0-----------------2---|
D|----------------3---------2----------3---------3------------3------------0---|
A|--3-----------------------3-----------------3----------3---------------------|
E|-----------------------------------------------------------------------------|

e|---0---3--------------3--0-----------------------3--0------------------------|
B|-----------0---1-------------3--1-------0---1-----------3--1------1----------|
G|----------------------------------------------------------------------0------|
D|------------------------------------3-------------------------3--------------|
A|---------------3------3--------------------------3--------------------3------|
E|-------3---------------------------------------------------------------------|



e|------------------------1----0----0-0-----------------------------------------|
B|-------1-----------0--1------3----------3-1---1-------------------------------|
G|----------0------------------2------------------------------------------------|
D|---3-----------3-------------0--------------------0---0-----------------------|
A|----------3---------------------------------------2---0-----------------------|
E|----------------------------------------------3---3---------------------------|


e|--3---0------------------3--0---------------------------------1-----0---0----|
B|---------3--1------0-1---1----3--1-----1---------1--------0-1-------3--------|
G|-------------------------0---------------0----------0---------------2--------|
D|---------------3---------2----------3--------3---------3------------0--------|
A|--3----------------------3---------------3----------3------------------------|
E|-----------------------------------------------------------------------------|



e|---0--------3----------------------------------------------------------------|
B|-------0----1----------------------------------------------------------------|
G|------------0----------------------------------------------------------------|
D|------------2----------------------------------------------------------------|
A|------------3----------------------------------------------------------------|
E|---3-------------------------------------------------------------------------|

            
            
Suggest correction
Creating personal tab
Creating personal tab
You can edit any tab online and save it as your Personal.

You can edit, replace or remove any tab part or add personal notes – all changes will be seen only by you.

Personal tabs can be accessed anytime from any device, even offline.
Learn more »
comments
print report bad tab
4 comments total. Showing first comments.
+3 reply
-LAW- 60 Sep 02, 2016 01:22 PM

I played this until my fingers bled... But I don't have skin on my fingers, because I'm a skeleton. YOHOHOHOHOHO! Skull joke.

+1 reply
goncalomcoliveira 10 Nov 11, 2016 10:54 AM

I could listen to this all day, although I don't have ears. YOHOHOHOHO! Skull Joke.

+1 reply
quentin_06 10 Apr 17, 2017 03:51 PM

This is the best tab I ever saw. Even if I don't have any eyes to see. YOHOHOHOHOHO ! Skull joke.

guest
You may want to rate the tab now too:
select rating
Wanna post a correction for this tab? Suggest correction