Oops, an error
Loading. Please wait.

One Piece - Binks Sake Tab

version 6
version 6

Interactive

2,555 views 30 this week
1 commentread comment
1 2 3 4 5
2 more votes to show rating
add to favorites
×
Save as Personal and add changes to this tab that will be seen only by you. Learn more ›
×
You can save this tab as Personal to edit and correct it or add notes. All changes will be seen only by you. Learn more »
save as personal
new!
launch autoscroll
font size
0
reset
how to read this tab
guitar tuner
Autoscroll
slow
fast
+/-
esc
set tempo
stop
Author
Difficulty
intermediate
-------------------------------------------------------------------------------
                Binks Sake - One Piece (alternate Fingerstyle Version)  
-------------------------------------------------------------------------------
Tabbed by:Ardie Williams

Tuning:Standard
Intro                                                      Refrain
e|-3-2-1---0---------0--------------------------------3----[--0--333------5---3----0----3--------|
B|---------1-1-1--3-----3-----------0---0--1--3--1----3----[------------------------------------0|
G|---------0------------2---2-------0---0--------0----0----[-----------------------------------0-|
D|---------2------------3---3-------0---0--------2----0----[-------------------------------------|
A|----------------------------1--2--------------------2--2-[--3--------------------3-------------|
E|----------------------------------------------------3----[----------3----------------------3---|

e|-0---333-------5----3---0----------------0--333-----5--3---0--3------0---333------5---3--|
B|----------------------------1------------------------------------------------------------|
G|-----------------------------------------------------------------------------------------|
D|---------------------------------------------------------------------0-------------------|
A|-3----------------------3-------0--2-----3--------2--------1-----0-----------------------|
E|----------3---------------------------------------------------------------------3--------|
                 Verse
e|--0-----------[--3---0------------------------3---0-------------------------------------|
B|----1---------[----------3---1------0----1-----------3---1----1----------1--------0--1--|
G|----0---------[----------0-------2-------------------0-----2-----0----2-----0---2-------|
D|----2---------[------------------3-------------------------3-----2----3-----2---3-------|
A|---------0--2-[--3----------------------------3-----------------------------------------|
E|--------------[-------------------------------------------------------------------------|

e|--0--0---0----------------3----0------------------------3----0------------------------|
B|------------3--1--3---------------3-----1------0---1-------------3----1------1--------|
G|------------------0---------------0---------2--------------------0-------2--------0---|
D|-----0------------0-------------------------3----------------------------3--------2---|
A|--------------------------3-----------------------------3-----------------------------|
E|--------------------------------------------------------------------------------------|
                                            (Verse End)
e|-------------------------1----0-------------------]--------------------0------------------|
B|------1----------0---1--------1----1---3----0---1-]---1---1---1---3-4--1--1-----1---------|
G|--2------0----2---------------0--------0--------0-]---2---2---2--------0-----2----2-------|
D|--3------2----3------------------------0--------2-]---3---3---3--------2------------------|
A|------------------------------------------------3-]---------------------------------------|
E|--------------------------------------------------]---------------------------------------|
                                  
e|---------------------------------0---333-----5--3---0----3----------0---333------5--3---0---|
B|--4--4--4---3---1------------------------------------------------0--------------------------|
G|--2--2--2------------0------------------------------------------0--------------------------1|
D|--3--3--3------------0----------------------------------------------------------------------|
A|-------------------------0-1-2---3------------------3---------------3-------------------3---|
E|--------------------3---------------------3-------------------3---------------3-------------|

e|------0---333--------5--3---0----3-------0----333-------5---3-----0------------------------|
B|------------------------------------------------------------------1----1---1----------0---1|
G|------------------------------------------------------------------0--------0---0---2-------|
D|-----------------------------------------0------------------------2--------2-------3-------|
A|-0-2--3--------2------------1--------0-----------------------------------------------------|
E|-----------------------------------------------------3-------------------------------------|

e|-0-------------------------------|   
B|----3--1---4--4--4---3--1--------|
G|-----------2--2--2----------0----|(Back To Verse, Stop At Verse End)
D|-----------3--3--3----------2----|
A|-------------------------------2-|
E|---------------------------------|


************************************

| /   slide up
| \   slide down
| h   hammer-on
| p   pull-off
| ~   vibrato
| +   harmonic
| x   Mute note
| b   Bend
| pb  Pre-bend
| br  Bend release
| pbr Pre-bend release
| brb Bend release bend

************************************
Suggest correction
Give kudos to tab author, rate the tab!
1 2 3 4 5
comments
print report bad tab
1 comment total.
0 reply
MrBlackyDeath 47 Jun 07, 2016 12:07 PM

nice one really good to play and i think fore my version is fingerstyle more a title... this one is really a fingerstyle Me Gusta!

guest
You may want to rate the tab now too:
select rating
Wanna post a correction for this tab? Suggest correction