Oops, an error
Loading. Please wait.

One Punch Man - Sad Theme tab

version 1
version 1

Whole song

Interactive

13,291 views 372 this week
1 commentread comment
1 2 3 4 5
x 4
add to favorites
×
Save as Personal and add changes to this tab that will be seen only by you. Learn more ›
×
You can save this tab as Personal to edit and correct it or add notes. All changes will be seen only by you. Learn more »
launch autoscroll
font size
0
reset
how to read this tab
guitar tuner
edit
Autoscroll
slow
fast
+/-
esc
set tempo
stop
Author
Difficulty
intermediate
-------------------------------------------------------------------------------
                             One Punch Man - Sad Theme OST
-------------------------------------------------------------------------------
Tabbed by: ogzeus
E-mail:

Tuning: EADGBe

Tempo: 60 to 75 BPM (play it sad and slow)

4/4
    S Q.     Q  Q  E Q.     E E E Q.  E E     E E E E E E Q     E E E Q.  S Q
e|--0h2---|--------------|-----------------|--------------0--|--2---------2h3---|
B|--------|--------4/5---|--3-----3---2-3--|------3---3------|------3-3---------|
G|--------|-----2--------|------4----------|----0---0---0----|----2-------------|
D|--------|--4-----------|----4------------|-----------------|--0---------------|
A|--------|--------------|--2--------------|-----------------|------------------|
E|--------|--------------|-----------------|--3--------------|------------------|

    E. SE E. E. S Q     E E E Q.  E E     E E E E E E Q     E E E Q  E S Q.     W
e|--2--0-------------|-----------------|--------------0--|--2----------2h3--|---0---|
B|--------3--2--3/5--|--3-----3---2-3--|------3---3------|------3-3---------|-------|
G|------2------------|------4----------|----0---0---0----|----2------2------|-------|
D|--0----------------|----4------------|-----------------|--0---------------|-------|
A|-------------------|--2--------------|-----------------|------------------|---0---|
E|-------------------|-----------------|--3--------------|------------------|-------|

    SSSSSSSSSSSSSSSS     SSSSSSSSSSSSSSSS     SSSSSSSSSSSSSSSS     SSSSSSSE SSE SSS 
e|--------------------|--------------------|--------------------|----0----2-0--------|
B|--3---3--3----3--3--|--3---3--3----3--3--|------3--3----3--2--|-----3-2-----3------|
G|----4---4---4---4---|----0---0---0---0---|----0---0---0---0---|---0--0-----0-------|
D|---4-4-4---4-4-4----|---4-4-4---4-4-4----|---4-4-4---4-4-4----|--------------------|
A|--2-------2---------|--------------------|--5-------5---------|--4-----4------0-0--|
E|--------------------|--3-------3---------|--------------------|----------------2---|

    SSSSSSSSSSSSSSSS     SSSSSSSSSSSSSSSS     SSSSSSSSSSSSSSSS     SSSSSSSSSSSSSSSS
e|--------------------|--0-----0-----0-----|----2---2---2----0--|----0---0---0-------|
B|--3--2--3--2--3-2---|-----3-----3----3---|-----3---3---3--3---|-----2---20--2---2--|
G|----4---------------|----0--0--0--0-0-0--|---0---0---0---0----|---0---0---0--3-3---|
D|---4---4--4--4------|---4----------------|--0---0---0---0-----|---------------4----|
A|--2---2--2--2--2-2--|--------------------|--------------------|--4---4---4---4-----|
E|--------------------|--3---3--3--3-------|--------------------|--------------------|

    SSSSSSE SSSSSSSSS     SSSSSSE SSSSSSSS     SSSSSSSSSSSSSSSS     SSSSSSSSSSSSSSE      W
e|----3-2---5-5-5/7----|----3-2----0--0--0--|-------------0---0--|------0--0---0-----|---2---|
B|-------3---------0---|-------3----3--3----|----3-20-3----32----|----3--3---3--3----|---2---|
G|-----0--0--0-0----0--|-----0--0----4--4---|---0-------2--------|---4-4--4---4--4---|---3---|
D|---0-----------------|---0----------------|-----2------2-------|----------------4--|---4---|
A|--2-------2----------|--------------------|----------0-----0---|--2-------2--------|---4---|
E|---------------------|--3-------3---------|--0-----0-----------|-------------------|---2---|

    E. S Q  Q  S Q.     E E E Q  E E S E.    E E E Q  E Q     E E E Q  E S Q.     E. E. Q  E S Q.
e|-------------------|--------------------|-------------0--|--2----------2/3---|--2----------------|
B|-------------3/5---|--3-----3----2-2/3--|------3---------|--------3----------|-----5--2--3-3/5---|
G|----------2--------|------4-------------|--------4-------|------4----4-------|-------------------|
D|-----3/4-----------|----4---------------|----4-----------|----4---4----------|-------------------|
A|-------------------|--2--------4--------|--0--------4----|-------------------|-------------------|
E|-------------------|--------------------|----------------|--3----------------|--2----------------|

    E E E Q.. E S E     E SSSE SE E E E E     E E E Q  E S Q.     E. E. Q  E Q      +W
e|-------------------|----0250----------0--|--2----------2/3---|--2--0-------0--|---(0)---|
B|--3-----3-----3/5--|------3--3------3----|--------3----------|--------2--3----|---------|
G|------4------------|------------4~~------|------4----4-------|----------------|---------|
D|----4--------------|----------4----------|----4---4----------|----------------|---------|
A|--2---------4------|--0-----------0------|-------------------|----------------|---------|
E|-------------------|---------------------|--3----------------|--2-------------|---------|



Tempo speeds up halfway through the song. I use distance between notes to help signify duration.
Please comment if you want me to space out the notes when it changes and add a note saying the tempo changes.
Otherwise, it'll stay cramped to show that it is supposed to be fast.

Finally finished with it, if there is anything that I am missing or is off let me know. I think this is as
close to actual as I can get it. 

Duration Legend
---------------
W - whole; H - half; Q - quarter; E - 8th; S - 16th; T - 32nd; X - 64th; a - acciaccatura
+ - note tied to previous; . - note dotted; .. - note double dotted
Uncapitalized letters represent notes that are staccato (1/2 duration)
Irregular groupings are notated above the duration line
Duration letters will always appear directly above the note/fret number it represents the
duration for.  Duration letters with no fret number below them represent rests.  Multi-
bar rests are notated in the form Wxn, where n is the number of bars to rest for.  Low
melody durations appear below the staff

Tablature Legend
----------------
 h   - hammer-on
 p   - pull-off
 b   - bend
 pb  - pre-bend
 r   - bend release (if no number after the r, then release immediately)
 /\  - slide into or out of (from/to "nowhere")
 s   - legato slide
 S   - shift slide
 - natural harmonic
[n]  - artificial harmonic
n(n) - tapped harmonic
 ~   - vibrato
 tr  - trill
 T   - tap
 TP  - trem. picking
 PM  - palm muting
\n/  - tremolo bar dip; n = amount to dip
 \n  - tremolo bar down
 n/  - tremolo bar up

            
            
Suggest correction
Creating personal tab
Creating personal tab
You can edit any tab online and save it as your Personal.

You can edit, replace or remove any tab part or add personal notes – all changes will be seen only by you.

Personal tabs can be accessed anytime from any device, even offline.
Learn more »
comments
print report bad tab
1 comment total.
+1 reply
alan2720 12 Sep 24, 2016 02:45 PM

I love you, thanks a lot !

guest
You may want to rate the tab now too:
select rating
Wanna post a correction for this tab? Suggest correction