Oops, an error
Loading. Please wait.

Over The Garden Wall - Into The Unknown tab

version 1
version 1

Whole song

  • This is the full version of the beautiful theme so... Show more

Interactive

1,408 views 93 this week
1 commentread comment
1 2 3 4 5
x 4
add to favorites
×
Save as Personal and add changes to this tab that will be seen only by you. Learn more ›
×
You can save this tab as Personal to edit and correct it or add notes. All changes will be seen only by you. Learn more »
launch autoscroll
font size
0
reset
how to read this tab
guitar tuner
edit
Autoscroll
slow
fast
+/-
esc
set tempo
stop
Author
Difficulty
About this tab version
This is the full version of the beautiful theme song to Over the Garden Wall. It's originally for piano so its been mildly simplified. Thanks and any suggestions are extremely appreciated. Was this info helpful? Yes No
All the harmonics in this tab are pinch harmonics.

 [Intro]
e|-4-7-5-4-3-4-<4>-----<4>-<5>-<4>-<5>-<4>--------------9-<9>--|
B|-----------------<2>---------------------<4>-<1>-----9-------|
G|----------------------------------------------------9--------|
D|--------------------------------------------------11---------|
A|-------------------------------------------------------------|
E|-------------------------------------------------------------|

 [First Part]
e|----4-4-4----4-4----4-2-2h4----2-|------4---------------------------------------|
B|---5--5-----4------2----------2--|----5---5----4-5-4----2------2----1-----------|
G|--6--------4------2----------2---|---6--------5--------1-----1-----1------1-<1>-|
D|-----------------2---------------|--6--------4--------2----2------1-----1-------|
A|-4--------2----------------------|-4--------6--------0---0------------3---------|
E|----------------------------2----|-------------------------------4--------------|

 Led through the mist, by the milk-light of moon
 all that was lost is reavealed
e|---------------------9-8-9-11----4|-4-5-----4-----3--------4-|----2-2-2---0-0-2---2-4-------|
B|-----9-9-9----9-9---------------4-|-------------------5---4--|---2-------2------2-----------|
G|----9--------8------6----------5--|-------6-----5---6----5---|--2---------------------6---5-|
D|--11--------9------7--------------|-----7-----6--------------|--------------------------8---|
A|------------------0-----------4---|--------------------------|-0----------------------------|
E|-9---------7----------------------|---5-----4-----3-----4----|----------4-----2-----4-------|
our long bygone burdens mere echoes of the spring
but where have we come and where shall we end
if dreams cant come true then why not pretend

 [Second Part/Outro]
e|----4-6--------4-4--------------------------------------------------------|
B|--------6-7---3-------9-7-----7----6-4----4--------2-1-1h2----------------|
G|---6---------1-------6------6-----5------6--6-6---2----------------6----7-|
D|--6---------0-------8-----8------4------6--------1-----------8---8-----8--|
A|-4-----------------6------------6------4--------------------8--8------8---|
E|------------------------------------------------1----------6---------6----|

 how the gentle wind becons through the leaves as autmun colors fall
e|-----------------------------------------------------------------------------|
B|----7-7-6------7-7----7-6-4h7----6-6----6--------7-6-4----6-4------2-----<2>-|
G|---8------8---4------6----------6------6--------5--------5----5---1----1-----|
D|--8----------6------6----------8------8---8-8--4--------4--------3---3-------|
A|-6-----------------4----------6------9--------6--------6--------4------------|
E|------------4----------------------------------------------------------------|
dancing in a swirl of golden memories the loveliest lies of all

************************************

| h  Hammer-on

************************************

            
            
Suggest correction
Creating personal tab
Creating personal tab
You can edit any tab online and save it as your Personal.

You can edit, replace or remove any tab part or add personal notes – all changes will be seen only by you.

Personal tabs can be accessed anytime from any device, even offline.
Learn more »
comments
print report bad tab
1 comment total.
0 reply
nabilou321 10 Apr 29, 2017 01:03 PM

Finally, I'm so glad I found this ,I couldn't find it a year ago and today I remembered it and Im so happy you posted this this year

guest
You may want to rate the tab now too:
select rating
Wanna post a correction for this tab? Suggest correction