Oops, an error
Loading. Please wait.

Over The Garden Wall - The Fight Is Over tab

1,291 views 30 this week
1 commentread comment
1 2 3 4 5
x 4
add to favorites
×
Save as Personal and add changes to this tab that will be seen only by you. Learn more ›
×
You can save this tab as Personal to edit and correct it or add notes. All changes will be seen only by you. Learn more »
launch autoscroll
font size
0
reset
how to read this tab
guitar tuner
edit
Autoscroll
slow
fast
+/-
esc
set tempo
stop
Author
Difficulty
[Verse]

Strum root note to the rhythm

  C           Em         F                      C        Am     F
e|---------------------------1--x-1-1-1-1-1-1-------------------1-1-1-1-1-1-----------------|
B|----5--x-x------0--x-x-----1--x-1-1-1-1-1-1------5-x-----1-x--1-1-1-1-1-1-----------------|
G|----5--x-x------0--x-x-----2--x-2-2-2-2-2-2------5-x-----2-x--2-2-2-2-2-2-----------------|
D|----5--x-x------2--x-x-----3--x-3-3-3-3-3-3------5-x---2-2-x--3-3-3-3-3-3-----------------|
A|-3--3--x-x---2--2--x-x--3--3--x-3-3-3-3-3-3---3--3-x---0-0-x--3-3-3-3-3-3-----------------|
E|------------------------1--1--x-1-1-1-1-1-1-------------------1-1-1-1-1-1-----------------|
   The angels have gone... songs gone silent    You're sinking like a stone... before the tide

    C         Em           F                    Am         G           C
e|-------------------------1--x-1-1-1-1-1------------------3--3--3--3--------------------|
B|----5--x-x----0--x-x-----1--x-1-1-1-1-1-------(1)---1-1--3--3--3--3---1~---------------|
G|----5--x-x----0--x-x-----2--x-2-2-2-2-2-------(2)---2-2--0--0--0--0---0~---------------|
D|----5--x-x----2--x-x-----3--x-3-3-3-3-3-------(2)---2-2--0--0--0--0---2~---------------|
A|-3--3--x-x--2-2--x-x--3--3--x-3-3-3-3-3-------(0)---0-0--2--2--2--2---3~---------------|
E|----------------------1--1--x-1-1-1-1-1------------------3--3--3--3--------------------|
   The river runs cold.... the fight is over  Still the haunted ruins of night call your name


                                                               Full version of the song ↓

[Solo]

Not complete >~< anyone who reads this please contribute! https://www.youtube.com/watch?v=A5nwqrtRwqA

e|---------------------------------------------------------------------------|
B|---------------------8----8------------------------------------------------|
G|--------5--7/9-7/9-9---9----9-7/9r7h5-7b--7/9r7h5-7b-7/9r7h5-7b-7/9r7h5-7b-|
D|---5--7--------------------------------------------------------------------|
A|---------------------------------------------------------------------------|
E|---------------------------------------------------------------------------|

e|-----------------------3/5---3/5--3/5---3/5------5--3--5--3--5/8~-12~-10~-8h5h8/10--|
B|-------------------------5~----5~---5~----5~-3/5--5--5--5---------------------------|
G|-------------5---7~-----------------------------------------------------------------|
D|---7-7/5-5/7---7--------------------------------------------------------------------|
A|------------------------------------------------------------------------------------|
E|------------------------------------------------------------------------------------|

e|-----------------------8-------------------|
B|---10-10-10--10/8-8/10-------------8-8-----|
G|------------------------9-9-9-9/7/9-9-9/5--|
D|-------------------------------------------|
A|-------------------------------------------|
E|-------------------------------------------|

************************************

| x    Dead note
| (n)  Ghost note
| h    Hammer-on
| r    Release
| b    Bend
| /    Slide up
| ~    Vibrato

************************************

            
            
Suggest correction
Creating personal tab
Creating personal tab
You can edit any tab online and save it as your Personal.

You can edit, replace or remove any tab part or add personal notes – all changes will be seen only by you.

Personal tabs can be accessed anytime from any device, even offline.
Learn more »
comments
print report bad tab
1 comment total.
0 reply
marcus.allan 10 Jun 18, 2017 02:25 PM

Great job. You are a beautiful person 👏🏻

guest
You may want to rate the tab now too:
select rating
Wanna post a correction for this tab? Suggest correction