Oops, an error
Loading. Please wait.

Peanuts Theme Tab

version 2
version 2

Whole song

Interactive

8,451 views 15 this week
no commentswrite comment
1 2 3 4 5
please rate
add to favorites
launch autoscroll
font size
0
reset
how to read this tab
guitar tuner
Autoscroll
slow
fast
+/-
esc
set tempo
stop
Help us to improve Ultimate-Guitar.com Take our survey!
×
Author
Also known as The Charlie Brown theme song.
Email: JpsCrazy@gmail.com

e|--------------------------|
B|-----1-1--------------1-1-|
G|-1-3-----3-1-3-1--1-3-----|
D|--------------------------|
A|--------------------------|
E|--------------------------|

e|--------------------------| e|-------|
B|-----1-1------------------| B|-------|
G|-1-3----3-1-3-1--1-3-3----| G|-1-3-3-|
D|--------------------------| D|-------|
A|--------------------------| A|-------|
E|--------------------------| E|-------|

e|--------------------------|
B|-----1-1--------------1-1-|
G|-1-3-----3-1-3-1--1-3-----|
D|--------------------------|
A|--------------------------|
E|--------------------------|

e|--------------------------| e|-------|
B|-----1-1------------------| B|-------|
G|-1-3----3-1-3-1--1-3-3----| G|-1-3-3-|
D|--------------------------| D|-------|
A|--------------------------| A|-------|
E|--------------------------| E|-------|


e|-------4-666-4-666-4-666-4|
B|-222-4--------------------| 
G|--------------------------|
D|--------------------------|
A|--------------------------|
E|--------------------------|

e|-------4-666-4-666-4-666-4|
B|-222-4--------------------| 
G|--------------------------|
D|--------------------------|
A|--------------------------|
E|--------------------------|

e|-------4-666-4-666-4-666-4| e|-------|
B|-222-4--------------------| B|-------|
G|--------------------------| G|-------|
D|--------------------------| D|--6~---|
A|--------------------------| A|-------|
E|--------------------------| E|-------|


And then the wole thing repeats.
That's the main theme! If you have any questions or comments, email me.
Suggest correction
Give kudos to tab author, rate the tab!
1 2 3 4 5
comments
print report bad tab
guest
You may want to rate the tab now too:
select rating
Please do not post tabs as comments. Select "correction" instead!