Oops, an error
Loading. Please wait.

Peppa Pig Theme Tab

41,302 views 168 this week
3 commentsread comments
1 2 3 4 5
x 43
add to favorites
launch autoscroll
font size
0
reset
how to read this tab
guitar tuner
Autoscroll
slow
fast
+/-
esc
set tempo
stop
Author
Difficulty
novice
Peppa Pig Theme Tune
(Children's TV series showing in the UK on Nick Jr and Five)

Tabbed by Iain McLaren (my first tab), dedicated to Hollie - Peppa's #1 fan!

e|--3--0-----------|-----------1--0-----|
B|--------1--3-----|--------3--------1--|
G|--------------0--|--0--4--------------|
D|-----------------|--------------------|
A|-----------------|--------------------|
E|-----------------|--------------------|

Suggest correction
comments
print report bad tab
3 comments total.
0 reply
THE ROZERS 68 Jun 03, 2013 01:06 PM

I can't wait to show my friends at school tomorrow! Thanks a lot

0 reply
thesocialchan 10 Mar 02, 2014 09:22 AM

Many thanks! AHAHAHAH

+3 reply
MicroMike2 56 Aug 14, 2014 12:18 AM

Great tab, thanks! 
The version below is an octave lower and sounds a little fuller:

D |---5--2--------------------3-2-------|
A |--------3--5---------2--5-------3----|
E |--------------3---3------------------|

guest
You may want to rate the tab now too:
select rating
Wanna post a correction for this tab? Suggest correction