Oops, an error
Loading. Please wait.

Phineas And Ferb - Come Home Perry Tab

version 1
version 1

Intro

  • Actual TAB (not chords) of the intro that is repea... Show more

Whole song

28 views 6 this week
no commentswrite comment
1 2 3 4 5
3 more votes to show rating
add to favorites
launch autoscroll
font size
0
reset
how to read this tab
guitar tuner
Autoscroll
slow
fast
+/-
esc
set tempo
stop
Help us to improve Ultimate-Guitar.com Take our survey!
×
Author
About this tab version
Actual TAB (not chords) of the intro that is repeated until the Chorus. Includes an alternate tuning. Was this info helpful? Yes No
There are plenty of tabs that give chords for this song, but if you listen 
closely you can hear a slide from an A to a B before the intro repeats, so 
I tried to put together as accurate a tab as I could for the intro. 
 
[Intro]

Rhythm guitar (strum it out)
e|-3---3---3---3---3---3---3---3---------------------------------------------|
B|-1---0---1---1---1---1---1---1---------------------------------------------|
G|---------2---0---x---x---2--/4---------------------------------------------|
D|-----------------3---2---3-------------------------------------------------|
A|---------------------------------------------------------------------------|
E|---------------------------------------------------------------------------|

2nd guitar
e|----------3----------------------------------------------------------------|
B|---------1-----------------------------------------------------------------|
G|--------4------------------------------------------------------------------|
D|---------------------------------------------------------------------------|
A|---------------------------------------------------------------------------|
E|---------------------------------------------------------------------------|



It's a little easier to manage if you alter the tuning of the 
high two strings from B and E to C and G:


Rhythm guitar (with altered tuning)
g|-0---0---0---0---0---0---0---0---------------------------------------------|
C|-x---x---0---0---0---0---0---x---------------------------------------------|
G|-5---4---2---0---x---x---2--/4---------------------------------------------|
D|-----------------3---2---3-------------------------------------------------|
A|---------------------------------------------------------------------------|
E|---------------------------------------------------------------------------|

2nd guitar
g|----------0----------------------------------------------------------------|
C|---------0-----------------------------------------------------------------|
G|--------4------------------------------------------------------------------|
D|---------------------------------------------------------------------------|
A|---------------------------------------------------------------------------|
E|---------------------------------------------------------------------------|
Suggest correction
Give kudos to tab author, rate the tab!
1 2 3 4 5
comments
print report bad tab
guest
You may want to rate the tab now too:
select rating
Wanna post a correction for this tab? Suggest correction