Oops, an error
Loading. Please wait.

Phineas And Ferb Tab

2,639 views 1 this week
1 commentread comment
1 2 3 4 5
please rate
add to favorites
launch autoscroll
font size
0
reset
how to read this tab
guitar tuner
Autoscroll
slow
fast
+/-
esc
set tempo
stop
Help us to improve Ultimate-Guitar.com Take our survey!
×
Author
Difficulty
novice
This is my first tab becouse i couldn't find this song anywhere.

it not 100% right but it's a start for you to find out this song and i like to hear some 
comments about things to inprove.

Enjoy.

Version 1:

This one is to play with a band or something.

Intro:

E|----4------4------4-------1-------4-------4------4-----6---6-------------|
B|---4--4---4--4---4--4----1--1----4--4----4--4---4--4---6---6-------------|
G|-------------------------------------------------------8---8-------------|
D|-------------------------------------------------------8---8-------------|
A|-4------3------1---------------4-------3-------1-------6---6-------------|
e|-----------------------1-------------------------------------------------|


E|4----4444--4444--6666--6666--6666--6666--4444--4--------------|
B|4----4444--4444--6666--6666--6666--6666--4444--4--------------|
G|5----5555--5555--7777--7777--8888--8888--5555--5--------------|
D|6----6666--6666--8888--8888--8888--8888--6666--6--------------|
A|6----6666--6666--8888--8888-6-----6------6666--6--------------|
e|----4-----4-----6-----6----------------4------4---------------|

Distortion Part:

E|---------------------------------------------------------------------------|
B|---------------------------------------------------------------------------|
G|-------------------------------3-333-33-1-3-3b4v----4--4-4-44----4--4-4-44-|
D|6-5-4-3--33--33----33--33--33--3-333-33-------------5--5-5-55----5--5-5-55-|
A|6-5-4-3--33--33----33--33--33--1-111-11-------------5--5-5-55----5--5-5-55-|
e|4-3-2-1--11--11----11--11--11-----------------------3--3-3-33----3--3-3-33-|

E|--66-6-66-6---------|
B|--66-6-66-6---------|
G|--88-8-88-8-8-7-6---|
D|--88-8-88-8-8-7-6---|
A|--66-6-66-6-6-5-4---|
e|--------------------|

Clean part:


E|---4444--4444--9-9-9-9---9-9----|
B|---4444--4444--9-9-9-9---9-9----|
G|---5555--5555--10101010--1010---|
D|---6666--6666--11111111--1111---|
A|---6666--6666--11111111--1111---|
e|-4------4-----9---------9-------|

Distortion Part:

E|----------------------------|
B|----------------------------|
G|----------------------------|
D|-----6-66-4-44-4-44-3-33----|
A|-----6-66-4-44-4-44-3-33----|
e|-/9\-4-44-2-22-2-22-1-11----|


E|----------------------------------------------------------------------------|
B|----------------------------------------------------------------------------|
G|--6-66----8-88-108-10b11v--------------------------------------------17\----|
D|--6-66----8-88-10------------66--44--44--33--6-6-/8---6-66-6\--------18\----|
A|--4-44----6-66/8-------------66--44--44--33--6-6-/8---6-66-6\--------18\----|
e|-----------------------------44--22--22--11--4-4-/6---4-44-4\--------16\----|






Version 2:

Chance the intro to this and you can play it alone.
Intro:

E|----------------------------------------------|
B|----6-----------------------------------------|
G|---6-6-------5---------6--------(2)-----------|
D|--6----6----6-6-------8-8-------3-3-----------|
A|-4---------6----6----8----8----3----3---------|
e|----------4---------6---------1---------------|

E|----------------------------------------------|
B|----6-----------------------------------------|
G|---6-6-------5---------6------12-12-----------|
D|--6----6----6-6-------8-8-----13-13-----------|
A|-4---------6----6----8----8---13-13-----------|
e|----------4---------6---------11-11-----------|
Suggest correction
What's this?
You can suggest a correction to this tab. Community and Mods will review your correction and vote to approve or reject it.
comments
We did not receive enough feedback on this tab! Please rate:
print report bad tab
1 2 3 4 5
1 comment total.
0 reply
Vlade-b 57 wrote on February 21 2013, 07:21 am

Thanks for making this. I wanted to learn this for my little sister.
One question though:
You wrote version 2 is so you can play it alone. But nowhere in version 1 do you indicate that there are supposed to be 2 guitars. Could you explain what you meant by that?

guest
You may want to rate the tab now too:
select rating
Please do not post tabs as comments. Select "correction" instead!