Oops, an error
Loading. Please wait.

Pink Panther Theme Tab

version 5
version 5
499,336 views 1,395 this week
33 commentsread comments
1 2 3 4 5
excellent!
x 270
add to favorites
launch autoscroll
font size
0
reset
how to read this tab
guitar tuner
Tab Pro tools
  • play this tab
  • loop segment
  • change instrument
  • show fretboard
  • metronome
×
Best way to learn
"Pink Panther Theme"
Autoscroll
slow
fast
+/-
esc
set tempo
stop
Contributor
Pink Panther Theme
Tabbed by Wes Chennault

The other tabs are pretty close, but this is what I got.

e|---------------|
B|---------------|
G|---------------|
D|---------------|
A|-4/5-6/7-------|
E|----------7--0-|

e|--------------------------------------------|
B|--------------------------------------------|
G|-----------------------5p4------------------|
D|----------4h5------4h5------5-8-7---5-------|
A|-4/5-6/7-------6h7--------7-----------7-5-7-|
E|--------------------------------------------|

e|-----------------------------------|
B|-----------------------------------|
G|-----------------------5p4----9-8~-|
D|----------4h5------4h5------5------|
A|-4/5-6/7-------6h7--------7--------|
E|-----------------------------------|

e|-----------------------------------------------|
B|-----------------------------------------------|
G|---------9-7-----------------------------------|
D|-------------9-7-5---8p7-8p7-8p7-8p7-5---------|
A|-4/5-6/7-----------7-------------------7-5-7-7-|
E|-----------------------------------------------|

Peace.


*******************************
| h     hammer-on
| p     pull-off
| /     slide up
*******************************
comments
print report bad tab
33 comments total. Showing first comments. show 1 bad comment
+7 reply
Rivers wrote on June 4 2005, 12:00 am

e|--------------------------------------------|
B|--------------------------------------------|
G|-----------------------5p4------------------|
D|----------4h5------4h5------5-8-7---5-------|
A|-4/5-6/7-------6h7--------7-----------7-5-7-|
E|--------------------------------------------|

it should be 598 not 587 but other than that good tab

+3 reply
Killer Gipsy wrote on February 12 2007, 03:57 pm

It?s very good tab. Good work!

I want to post or [tab]
guest
You may want to rate the tab now too:
select rating
Please do not post tabs as comments. Select "correction" instead!