Oops, an error
Loading. Please wait.

Pokemon - Lugia Song tab

version 1
version 1

Whole song

Interactive

19,715 views 6 this week
2 commentsread comments
1 2 3 4 5
x 6
add to favorites
×
Save as Personal and add changes to this tab that will be seen only by you. Learn more ›
×
You can save this tab as Personal to edit and correct it or add notes. All changes will be seen only by you. Learn more »
launch autoscroll
font size
0
reset
how to read this tab
guitar tuner
edit
Autoscroll
slow
fast
+/-
esc
set tempo
stop
Author
Difficulty
e|--0--3--2--------|--0--3--2----?
b|---------3--5--0-|---------3--5?
g|-----------------|-------------?
d|-----------------|-------------?
a|-----------------|-------------?
E|-----------------|-------------?


This is the beginging of Lugia song and this is all i have figured out -_-' And if know 
please create tabs so i can lern. ^^
Suggest correction
Creating personal tab
Creating personal tab
You can edit any tab online and save it as your Personal.

You can edit, replace or remove any tab part or add personal notes – all changes will be seen only by you.

Personal tabs can be accessed anytime from any device, even offline.
Learn more »
comments
print report bad tab
2 comments total.
0 reply
Rockstar729 77 Jul 01, 2008 05:22 AM

e|--0--3--2--------|---0--3--2----?
b|---------3--5-2-0|---------3--5?
g|-----------------|-------------?
d|-----------------|--------------?
a|-----------------|--------------?
E|-----------------|--------------?

-1 reply
guitarlover865 128 Aug 28, 2009 10:03 AM

Sorry, but I give it one star. If you registered this tab as an intro tab, then it would've been a little better, but even then it would have to be way longer.

guest
You may want to rate the tab now too:
select rating
Wanna post a correction for this tab? Suggest correction