Oops, an error
Loading. Please wait.

Pokemon Theme Bass Tab

version 1
version 1

Whole song

58,683 views 57 this week
1 commentread comment
1 2 3 4 5
accurate
x 15
add to favorites
launch autoscroll
font size
0
reset
guitar tuner
Tab Pro tools
  • play this tab
  • loop segment
  • change instrument
  • show fretboard
  • metronome
×
Best way to learn
"Pokemon Theme"
Autoscroll
slow
fast
+/-
esc
set tempo
stop
Contributor
[Verse 1]

G------------------------------------------------|
D------------------------------------------------|
A--5--8---10-------------------------------------|
E------------------------------------------------|
                I wanna be the very best

G------------------------------------------------|
D—-----------------------------------------------|
A--8---5-----------------------------------------|
E---------3--------------------------------------|
                Like no one ever was 
G------------------------------------------------|
D—-----------------------------------------------|
A--8---3--5--6-----------------------------------|
E--------------------------------6---------------|
                To catch them is my real test

G------------------------------------------------|
D------------------------------------------------|
A--------------------------3-----5---------------|
E---------------6--------------------------------|
                To train them is my cause

G------------------------------------------------|
D------------------------------------------------|
A--5--8---10-------------------------------------|
E------------------------------------------------|
                I will travel across the land

G------------------------------------------------|
D------------------------------------------------|
A--8---5-----------------------------------------|
E---------3--------------------------------------|
                Searching far and wide

G------------------------------------------------|
D------------------------------------------------|
A--8---3--5--6-----------------------------------|
E--------------------------------6---------------|
                Teach Pokemon to understand

G------------------------------------------------|
D------------------------------------------------|
A-------------------------3------5---------------|
E-------------------6----------------------------|
                The power that's inside

[Chorus]

E—3333333311111111-| x3

   Pokémon (Gotta catch ‘em all)

   It's you and me

   I know it's my destiny

   Pokemon

   Oh, you're my best friend


G------------------------------------------------|
D------------------------------------------------|
A-1-3-5------------------------------------------|
E--------33333333111111113333333311111111--------|

   In a world we must defend

Pokémon (Gotta catch ‘em all)

   Oh, a heart so true

   Our courage will pull us through


G------------------------------------------------|
D------------------------------------------------|
A-6--1--1-3-5-5-8-10^----------------------------|
E------------------------------------------------|

You teach me and I'll teach you
   
Po - ke - mon   Gotta catch 'em all 

(Gotta catch ‘em all)


[Verse 2]

G------------------------------------------------|
D------------------------------------------------|
A--5--8---10-------------------------------------|
E------------------------------------------------|
                Every challenge along the way

G------------------------------------------------|
D—-----------------------------------------------|
A--8---5-----------------------------------------|
E---------3--------------------------------------|
                With courage I will face
 
G------------------------------------------------|
D—-----------------------------------------------|
A--8---3--5--6-----------------------------------|
E--------------------------------6---------------|
                I will battle everyday

G------------------------------------------------|
D------------------------------------------------|
A--------------------------3-----5---------------|
E---------------6--------------------------------|
                To claim my rightful place

G------------------------------------------------|
D------------------------------------------------|
A--5--8---10-------------------------------------|
E------------------------------------------------|
                Come with me – the time is right

G------------------------------------------------|
D------------------------------------------------|
A--8---5-----------------------------------------|
E---------3--------------------------------------|
                There’s no better team.

G------------------------------------------------|
D------------------------------------------------|
A--8---3--5--6-----------------------------------|
E--------------------------------6---------------|
                Arm in arm, we’ll win the fight

G------------------------------------------------|
D------------------------------------------------|
A-------------------------3------5---------------|
E-------------------6----------------------------|
                It’s always been our dream.

[Chorus]

E—3333333311111111-| x3

   Pokémon (Gotta catch ‘em all)

   It's you and me

   I know it's my destiny

   Pokemon

   Oh, you're my best friend


G------------------------------------------------|
D------------------------------------------------|
A-1-3-5------------------------------------------|
E--------33333333111111113333333311111111--------|

   In a world we must defend

Pokémon (Gotta catch ‘em all)

   Oh, a heart so true

   Our courage will pull us through


G------------------------------------------------|
D------------------------------------------------|
A-6--1--1-3-5-5-8-10^----------------------------|
E------------------------------------------------|

You teach me and I'll teach you
   
Po - ke - mon   Gotta catch 'em all 

(Gotta catch ‘em all)



[Bridge]

Gotta catch 'em all

G—-------------------|    |
D—-------------------|    |
A--10--8---10--8--8--| x4 |
E--------------------|    |

Gotta catch 'em all

G—-------------------|    |
D--------------------|    |
A--12--10--12--10-10-| x3 |
E--------------------|    |

Ye-ah

[Solo]  

G------------------------------------------------|
D------------------------------------------------|
A------------------------------------------------|
E-----8--10--12----------------------------------|

E—3333333311111111-| x3



G------------------------------------------------|
D------------------------------------------------|
A------------------------------------------------|
E-1-3-1-3--5---11--------------------------------|


[Chorus]

E—3333333311111111-| x3

   Pokémon (Gotta catch ‘em all)

   It's you and me

   I know it's my destiny

   Pokemon

   Oh, you're my best friend


G------------------------------------------------|
D------------------------------------------------|
A-1-3-5------------------------------------------|
E--------33333333111111113333333311111111--------|

   In a world we must defend

Pokémon (Gotta catch ‘em all)

   Oh, a heart so true

   Our courage will pull us through


G------------------------------------------------|
D------------------------------------------------|
A-6--1--1-3-5-5-8-10^----------------------------|
E------------------------------------------------|

You teach me and I'll teach you
   
Po - ke - mon   Gotta catch 'em all 

(Gotta catch ‘em all)



[Outro]

G-----------------|
D-----------------|
A-----------------|
E--1----1----1----|

   PO - KE - MON


comments
print report bad tab
1 comment total.
0 reply
jimmyjamjar5454 wrote on February 3 2013, 08:27 am

Close enough. The original is played in first position.

I want to post or [tab]
guest
You may want to rate the tab now too:
select rating
Please do not post tabs as comments. Select "correction" instead!