Oops, an error
Loading. Please wait.

Pokemon Theme solo tab

version 3
version 3

Solo

  • This is the most correct Tab version out there and... Show more

Whole song

850 views 6 this week
1 commentread comment
1 2 3 4 5
1 last vote to show rating
add to favorites
×
Save as Personal and add changes to this tab that will be seen only by you. Learn more ›
×
You can save this tab as Personal to edit and correct it or add notes. All changes will be seen only by you. Learn more »
launch autoscroll
font size
0
reset
how to read this tab
guitar tuner
edit
Autoscroll
slow
fast
+/-
esc
set tempo
stop
Author
About this tab version
This is the most correct Tab version out there and the easiest for most people to play, Try it out yourself and see the difference. Was this info helpful? Yes No
Hey everyone!   With the release of Pokemon GO and everyones renewed interest in Pokemon

I decided to tab out the CORRECT way to play this solo,  Theres a lot of incorrect ways to play it on this 
site, but this is definitely the correct way! This song is a lot of peoples childhood and I cant think of a 
better song to tab out at the moment!

Listen to the song for appropriate timing

Tab By King Kenroy

[Solo]

e|-----------------------------17b18br17--15~~--------------------------------------------------------|
B|---------------------11-10--------------------------------------------------------------------------|
G|----/10-------10-12---------------------------------------------------------------------------------|
D|----------13----------------------------------------------------------------------------------------|
A|----------------------------------------------------------------------------------------------------|
E|----------------------------------------------------------------------------------------------------|

e|----------------------------------------------------------------------------------------------------|
B|----------------------------------------------------------------------------------------------------|
G|--17b19br17----15----15-17--------------------------------------------------------------------------|
D|------------17----17---------17~~--------------------17---------------------------------------------|
A|-----------------------------------/15--/15--15-----------------------------------------------------|
E|-------------------------------------------------18-------------------------------------------------|

e|----------------------------------------------------------------------------------------------------|
B|----------------15-16~----18-16-15------------------------------------------------------------------|
G|-------------15--------------------15---------------------------------------------------------------|
D|-------15-17--------------------------15------------------------------------------------------------|
A|----18----------------------------------------------------------------------------------------------|
E|----------------------------------------------------------------------------------------------------|


e|-----------------------------------------------------15--17------20b22br20-20b22br20-20~------------|
B|------------15--17~-------------15--17------15-17-18------------------------------------------------|
G|----15--17--------------15--17-----------17---------------------------------------------------------|
D|----------------------------------------------------------------------------------------------------|
A|----------------------------------------------------------------------------------------------------|
E|----------------------------------------------------------------------------------------------------|



************************************

| b   Bend
| br  Bend release
| /   Slide up
| ~   Vibrato

************************************

            
            
Suggest correction
Creating personal tab
Creating personal tab
You can edit any tab online and save it as your Personal.

You can edit, replace or remove any tab part or add personal notes – all changes will be seen only by you.

Personal tabs can be accessed anytime from any device, even offline.
Learn more »
Give kudos to tab author, rate the tab!
1 2 3 4 5
comments
print report bad tab
1 comment total.
+1 reply
ygnumb 10 Sep 05, 2016 10:02 AM

Very good tab ;)

guest
You may want to rate the tab now too:
select rating
Wanna post a correction for this tab? Suggest correction