Oops, an error
Loading. Please wait.

Pokemon Theme Tab

version 1
version 1
554,382 views 8,586 this week
67 commentsread comments
1 2 3 4 5
accurate
x 53
add to favorites
launch autoscroll
font size
0
reset
how to read this tab
guitar tuner
Autoscroll
slow
fast
+/-
esc
set tempo
stop
Help us to improve Ultimate-Guitar.com Take our survey!
×
Pokemon, Theme Tune (Series 1).
 Tabbed by Mark Geater, geat@zoom.co.uk.
Song:   Pokemon Theme Tune (Series 1)
Transcribed by Mark Geater (geat@zoom.co.uk)
Comments or suggestions - Why not mail me?


[Verse 1]

e|------------------------------------------------|
B|------------------------------------------------|
G|------------------------------------------------|
D|--7--10--12-------------------------------------|
A|--5--8---10-------------------------------------|
E|------------------------------------------------|
                I wanna be the very best

e|------------------------------------------------|
B|------------------------------------------------|
G|------------------------------------------------|
D|--10--7-----------------------------------------|
A|--8---5--5--------------------------------------|
E|---------3--------------------------------------|
                Like no one ever was

e|------------------------------------------------|
B|------------------------------------------------|
G|------------------------------------------------|
D|--10--5--7--8-----------------------------------|
A|--8---3--5--6-------------------8---------------|
E|--------------------------------6---------------|
                To catch them is my real test

e|------------------------------------------------|
B|------------------------------------------------|
G|------------------------------------------------|
D|--------------------------5-----7---------------|
A|---------------8----------3-----5---------------|
E|---------------6--------------------------------|
                To train them is my cause

e|------------------------------------------------|
B|------------------------------------------------|
G|------------------------------------------------|
D|--7--10--12-------------------------------------|
A|--5--8---10-------------------------------------|
E|------------------------------------------------|
                I will travel across the land

e|------------------------------------------------|
B|------------------------------------------------|
G|------------------------------------------------|
D|--10--7-----------------------------------------|
A|--8---5--5--------------------------------------|
E|---------3--------------------------------------|
                Searching far and wide

e|------------------------------------------------|
B|------------------------------------------------|
G|------------------------------------------------|
D|--10--5--7--8-----------------------------------|
A|--8---3--5--6-------------------8---------------|
E|--------------------------------6---------------|
                Teach Pokemon to understand

e|------------------------------------------------|
B|------------------------------------------------|
G|------------------------------------------------|
D|-------------------------5------7---------------|
A|-------------------8-----3------5---------------|
E|-------------------6----------------------------|
                The power that's inside


[Chorus]

       G(X)
   Pokemon
        F(VIII)
   It's you and me
G(X)              F(VIII)
   I know it's my destiny
       G(X)
   Pokemon
              F(VIII)
   Oh, you're my best friend

e|--------------------------------|
B|-------3--------5------7----8-7-|
G|-------3--------5------7----7-7-|
D|-------3--------5------7----7-7-|
A|-------1--------3------5----5-5-|
E|--------------------------------|
   In a world we must defend

       G(X)
   Pokemon
         F(VIII)
   Oh, a heart so true
G(X)                F(VIII)
   Our courage will pull us through

e|---------------------------------|
B|--8----------------3-------------|
G|--8----------------3-------------|
D|--8----------------3-------------|
A|--6----------------1-------------|
E|---------------------------------|
   You teach me and I'll teach you

e|--------------------------------------------------|
B|--------------------------------------------------|
G|--------------------------------------------------|
D|--3----5----7------------------------8----10---12-|
A|--1----3----5------------------------6----8----10-|
E|--------------------------------------------------|
   Po - ke - mon   Gotta catch 'em all


[Chorus Out]

e|---------------------------------|
B|---------------------------------|
G|----------17b19r17-15-17__b19----|  ( __ = Hold Note)
D|------------------------------17-|
A|---------------------------------|
E|---------------------------------|
  Yeah-Yeah


[Verse 2]

e|-----------------------------------------------|
B|-----------------------------------------------|
G|-----------------------------------------------|
D|--7--10--12------------------------------------|
A|--5--8---10------------------------------------|
E|-----------------------------------------------|
                Every challenge along the way

e|-----------------------------------------------|
B|-----------------------------------------------|
G|-----------------------------------------------|
D|--10--7----------------------------------------|
A|--8---5--5-------------------------------------|
E|---------3-------------------------------------|
                With courage I will face

e|-----------------------------------------------|
B|-----------------------------------------------|
G|-----------------------------------------------|
D|--10--5--7--8----------------------------------|
A|--8---3--5--6----------------8-----------------|
E|-----------------------------6-----------------|
                I will battle everyday

e|-----------------------------------------------|
B|-----------------------------------------------|
G|-----------------------------------------------|
D|---------------------------5--------7----------|
A|------------------8--------3--------5----------|
E|------------------6----------------------------|
                To claim my rightful place

e|-----------------------------------------------|
B|-----------------------------------------------|
G|-----------------------------------------------|
D|--7--10--12------------------------------------|
A|--5--8---10------------------------------------|
E|-----------------------------------------------|
                Come with me - the time is right

e|-----------------------------------------------|
B|-----------------------------------------------|
G|-----------------------------------------------|
D|--10--7----------------------------------------|
A|--8---5--5-------------------------------------|
E|---------3-------------------------------------|
                There's no better team.

e|-----------------------------------------------|
B|-----------------------------------------------|
G|-----------------------------------------------|
D|--10--5--7--8----------------------------------|
A|--8---3--5--6--------------------8-------------|
E|---------------------------------6-------------|
                Arm in arm, we'll win the fight

e|-----------------------------------------------|
B|-----------------------------------------------|
G|-----------------------------------------------|
D|---------------------------5--------7----------|
A|--------------------8------3--------5----------|
E|--------------------6--------------------------|
                It's always been our dream. 


[Chorus]

       G(X)
   Pokemon
        F(VIII)
   It's you and me
G(X)              F(VIII)
   I know it's my destiny
       G(X)
   Pokemon
              F(VIII)
   Oh, you're my best friend

e|--------------------------------|
B|-------3--------5------7----8-7-|
G|-------3--------5------7----7-7-|
D|-------3--------5------7----7-7-|
A|-------1--------3------5----5-5-|
E|--------------------------------|
   In a world we must defend

       G(X)
   Pokemon
         F(VIII)
   Oh, a heart so true
G(X)                F(VIII)
   Our courage will pull us through

e|---------------------------------|
B|--8----------------3-------------|
G|--8----------------3-------------|
D|--8----------------3-------------|
A|--6----------------1-------------|
E|---------------------------------|
   You teach me and I'll teach you

e|--------------------------------------------------|
B|--------------------------------------------------|
G|--------------------------------------------------|
D|--3----5----7------------------------8----10---12-|
A|--1----3----5------------------------6----8----10-|
E|--------------------------------------------------|
   Po - ke - mon   Gotta catch 'em all


[Chorus Out]

e|---------------------------------|
B|---------------------------------|
G|----------17b19r17-15-17__b19----|  ( __ = Hold Note)
D|------------------------------17-|
A|---------------------------------|
E|---------------------------------|
  Yeah-Yeah


[Bridge]

Gotta catch 'em all

e|--------------------|
B|--------------------|
G|--------------------|x4
D|--12--19--12--10-10-|  
A|--10--8---10--8--8--| 
E|--------------------| 

Gotta catch 'em all

e|--------------------|
B|--------------------|
G|--------------------|x3
D|--14--12--14--12-12-|    
A|--12--10--12--10-10-| 
E|--------------------|    

Ye-ah


[Solo]  

      |---3---|
e|----------------------------|
B|----------------------------|
G|----------14-15-14----14----|
D|-15-13h15----------17----17-|
A|----------------------------|
E|----------------------------|

e|----------------------------------------------|
B|----------------------------------------------|
G|-17b19-15-17----15-17-------------------------|
D|-------------17-------17-------------------17-|
A|-------------------------------15-15-15-------|
E|----------------------------------------18----|

e|------------------------------------|
B|-------13h15-16___16b18r16-15-------|
G|-12h15------------------------15----|
D|---------------------------------15-|
A|------------------------------------|
E|------------------------------------|

e|----------------------|
B|-------------17b18r17-|
G|-15-15-15h17----------|
D|----------------------|
A|----------------------|
E|----------------------|

e|-------------------15-17b18r17--17b18r17--21b22--21b22--21b22__-|
B|-15-------15-18-------------------------------------------------|
G|----15-17-------15----------------------------------------------|
D|----------------------------------------------------------------|
A|----------------------------------------------------------------|
E|----------------------------------------------------------------|


[Chorus]

       G(X)
   Pokemon
        F(VIII)
   It's you and me
G(X)              F(VIII)
   I know it's my destiny
       G(X)
   Pokemon
              F(VIII)
   Oh, you're my best friend

e|--------------------------------|
B|-------3--------5------7----8-7-|
G|-------3--------5------7----7-7-|
D|-------3--------5------7----7-7-|
A|-------1--------3------5----5-5-|
E|--------------------------------|
   In a world we must defend

       G(X)
   Pokemon
         F(VIII)
   Oh, a heart so true
G(X)                F(VIII)
   Our courage will pull us through

e|---------------------------------|
B|--8----------------3-------------|
G|--8----------------3-------------|
D|--8----------------3-------------|
A|--6----------------1-------------|
E|---------------------------------|
   You teach me and I'll teach you

e|--------------------------------------------------|
B|--------------------------------------------------|
G|--------------------------------------------------|
D|--3----5----7------------------------8----10---12-|
A|--1----3----5------------------------6----8----10-|
E|--------------------------------------------------|
   Po - ke - mon   Gotta catch 'em all


[Chorus Out]

e|---------------------------------|
B|---------------------------------|
G|----------17b19r17-15-17__b19----|  ( __ = Hold Note)
D|------------------------------17-|
A|---------------------------------|
E|---------------------------------|
  Yeah-Yeah


[Outro]

e|-----------------|
B|-----------------|
G|-----------------|
D|-----------------|
A|--3----3----3\\0-|
E|--1----1----1\\0-|
   PO - KE - MON


-----------
Chords Used
-----------

G(X)            F(VIII)

e|------|        e------|
B|--12--|        B--10--|
G|--12--|        G--10--|
D|--12--|        D--10--|
A|--10--|        A--8---|
E|------|        E------|

You will probably need to listen to the record to get the timing right
for the solo - it's actually quite tricky.
Have Fun!



************************************

| h  Hammer-on
| r  Release
| b  Bend
| \  Slide down

************************************
comments
print report bad tab
67 comments total. Showing first comments. show 3 bad comments
I want to post or [tab]
guest
You may want to rate the tab now too:
select rating
Please do not post tabs as comments. Select "correction" instead!