Oops, an error
Loading. Please wait.

Pokemon Theme bass

version 2
version 2
3,864 views 12 this week
no commentswrite comment
1 2 3 4 5
x 8
add to favorites
×
Save as Personal and add changes to this tab that will be seen only by you. Learn more ›
×
You can save this tab as Personal to edit and correct it or add notes. All changes will be seen only by you. Learn more »
launch autoscroll
font size
0
reset
guitar tuner
edit
Autoscroll
slow
fast
+/-
esc
set tempo
stop
Author
Difficulty
Intro
G|-----------------------------------------------------------------|
D|-5---------------------------------------------------------0-3-5-|
A|-----------------------------------------------------------------|
E|-----------------------------------------------------------------|
   1 + 2 + 3 + 4 + 1 + 2 + 3 + 4 + 1 + 2 + 3 + 4 + 1 + 2 + 3 + 4 +

Verse
G|-----------------------------------------------------------------|
D|-\-------------------------3-0-------------------------3---------|
A|-----------------------------------------------------------3---6-|
E|-------------------------------3-\-------------------------------|
   1 + 2 + 3 + 4 + 1 + 2 + 3 + 4 + 1 + 2 + 3 + 4 + 1 + 2 + 3 + 4 +

G|-------------------------------3---------------------------------|
D|-----------------------------------------------------------0-3-5-|
A|-6-\-------------1---------------1-----3-----5-------------------|
E|-----------------------------------------------------------------|
   1 + 2 + 3 + 4 + 1 + 2 + 3 + 4 + 1 + 2 + 3 + 4 + 1 + 2 + 3 + 4 +

G|-----------------------------------------------------------------|
D|-\-------------------------3-0-------------------------3---------|
A|-----------------------------------------------------------3---6-|
E|-------------------------------3-\-------------------------------|
   1 + 2 + 3 + 4 + 1 + 2 + 3 + 4 + 1 + 2 + 3 + 4 + 1 + 2 + 3 + 4 +

G|-----------------------------------------------------------------|
D|---------------------------------------------------------------0-|
A|-6-\-------------1---------------1-----3-----5-------------1-3---|
E|-----------------------------------------------------------------|
   1 + 2 + 3 + 4 + 1 + 2 + 3 + 4 + 1 + 2 + 3 + 4 + 1 + 2 + 3 + 4 +

Chorus
G|-----------------------------------------------------------------|
D|-1-----1-1-1---11----------------1-----1-1-1---------------------|
A|-----------------1-----1-1-1---11--------------------------------|
E|-------------------------------------------------1-----1-1-1-----|
   1 + 2 + 3 + 4 + 1 + 2 + 3 + 4 + 1 + 2 + 3 + 4 + 1 + 2 + 3 + 4 +

G|-----------------------------------------------------------------|
D|-----------------------------------------------------------------|
A|---------------------------------1-----3-----5---------------3-5-|
E|-3-----3-3-3---3-5-----5-5-5-------------------------------------|
   1 + 2 + 3 + 4 + 1 + 2 + 3 + 4 + 1 + 2 + 3 + 4 + 1 + 2 + 3 + 4 +

G|-----------------------------------------------------------------|
D|-1-----1-1-1---11------------------------------------------------|
A|-----------------8-\-\---------------------------0-----0-0-0---0-|
E|-----------------------1-1-1---113-----3-3-3---1-----------------|
   1 + 2 + 3 + 4 + 1 + 2 + 3 + 4 + 1 + 2 + 3 + 4 + 1 + 2 + 3 + 4 +

G|---------------------------------------------------------------------------------|
D|-----------------------------------------------------------------1-----3---------|
A|-3-----3-3-3---3-5-----5-5-5---3-1-----3-----5-----------------------------------|
E|---------------------------------------------------------------------------------|
   1 + 2 + 3 + 4 + 1 + 2 + 3 + 4 + 1 + 2 + 3 + 4 + 1 + 2 + 3 + 4 + 1 + 2 + 3 + 4 +

Interlude
G|-----------------------------------------------------------------|
D|-5---------------------------------------------------------0-3-5-|
A|-----------------------------------------------------------------|
E|-----------------------------------------------------------------|
   1 + 2 + 3 + 4 + 1 + 2 + 3 + 4 + 1 + 2 + 3 + 4 + 1 + 2 + 3 + 4 +

Verse
G|-----------------------------------------------------------------|
D|-\-------------------------3-0-------------------------3---------|
A|-----------------------------------------------------------3---6-|
E|-------------------------------3-\-------------------------------|
   1 + 2 + 3 + 4 + 1 + 2 + 3 + 4 + 1 + 2 + 3 + 4 + 1 + 2 + 3 + 4 +

G|-----------------------------------------------------------------|
D|-----------------------------------------------------------0-3-5-|
A|-6-\-------------1---------------1-----3-----5-------------------|
E|-----------------------------------------------------------------|
   1 + 2 + 3 + 4 + 1 + 2 + 3 + 4 + 1 + 2 + 3 + 4 + 1 + 2 + 3 + 4 +

G|-----------------------------------------------------------------|
D|-\-------------------------3-0-------------------------3---------|
A|-----------------------------------------------------------3---6-|
E|-------------------------------3-\-------------------------------|
   1 + 2 + 3 + 4 + 1 + 2 + 3 + 4 + 1 + 2 + 3 + 4 + 1 + 2 + 3 + 4 +

G|-----------------------------------------------------------------|
D|---------------------------------------------------------------0-|
A|-6-\-------------1---------------1-----3-----5-------------1-3---|
E|-----------------------------------------------------------------|
   1 + 2 + 3 + 4 + 1 + 2 + 3 + 4 + 1 + 2 + 3 + 4 + 1 + 2 + 3 + 4 +

Chorus
G|-----------------------------------------------------------------|
D|-1-----1-1-1---11----------------1-----1-1-1---------------------|
A|-----------------1-----1-1-1---11--------------------------------|
E|-------------------------------------------------1-----1-1-1-----|
   1 + 2 + 3 + 4 + 1 + 2 + 3 + 4 + 1 + 2 + 3 + 4 + 1 + 2 + 3 + 4 +

G|-----------------------------------------------------------------|
D|-----------------------------------------------------------------|
A|---------------------------------1-----3-----5---------------3-5-|
E|-3-----3-3-3---3-5-----5-5-5-------------------------------------|
   1 + 2 + 3 + 4 + 1 + 2 + 3 + 4 + 1 + 2 + 3 + 4 + 1 + 2 + 3 + 4 +

G|-----------------------------------------------------------------|
D|-1-----1-1-1---11------------------------------------------------|
A|-----------------8-\-\---------------------------0-----0-0-0---0-|
E|-----------------------1-1-1---113-----3-3-3---1-----------------|
   1 + 2 + 3 + 4 + 1 + 2 + 3 + 4 + 1 + 2 + 3 + 4 + 1 + 2 + 3 + 4 +

G|---------------------------------------------------------------------------------|
D|-----------------------------------------------------------------1-----3---------|
A|-3-----3-3-3---3-5-----5-5-5---3-1-----3-----5-----------------------------------|
E|---------------------------------------------------------------------------------|
   1 + 2 + 3 + 4 + 1 + 2 + 3 + 4 + 1 + 2 + 3 + 4 + 1 + 2 + 3 + 4 + 1 + 2 + 3 + 4 +

Interlude 
G|-----------------------------------------------------------------|
D|-5---------------------------------------------------------0-3-5-|
A|-----------------------------------------------------------------|
E|-----------------------------------------------------------------|
   1 + 2 + 3 + 4 + 1 + 2 + 3 + 4 + 1 + 2 + 3 + 4 + 1 + 2 + 3 + 4 +

G|-----------------------------------------------------------------|
D|-5-------------------------------------------------------5-3-----|
A|-------------------------------------------------------------5-3-|
E|-----------------------------------------------------------------|
   1 + 2 + 3 + 4 + 1 + 2 + 3 + 4 + 1 + 2 + 3 + 4 + 1 + 2 + 3 + 4 +

Bridge
G|-----------------------------------------------------------------|
D|-----------------------------------------1-0---------------------|
A|-0---------------0-------0-3-5-6-0-----------3-1-0---------------|
E|-----------------------------------------------------------------|
   1 + 2 + 3 + 4 + 1 + 2 + 3 + 4 + 1 + 2 + 3 + 4 + 1 + 2 + 3 + 4 +

G|-------------------------------------------------|
D|-------------------------1-0-----1-----3---3---3-|
A|-0---------------0-----------3-1-----------------|
E|-------------------------------------------------|
   1 + 2 + 3 + 4 + 1 + 2 + 3 + 4 + 1 + 2 + 3 + 4 + 

Solo
G|-------------5p3-------------------------------------------------|
D|---------------------------3-0-------------------------3---------|
A|-----------------------------------------------------------3---6-|
E|-3-\---------------------------3-\-------------------------------|
   1 + 2 + 3 + 4 + 1 + 2 + 3 + 4 + 1 + 2 + 3 + 4 + 1 + 2 + 3 + 4 +

G|-----------------------------------------------------------------|
D|-----------------------------------------------------------------|
A|-6-\-------------1---------------1-----3---3-----1-----3---3---5-|
E|-----------------------------------------------------------------|
   1 + 2 + 3 + 4 + 1 + 2 + 3 + 4 + 1 + 2 + 3 + 4 + 1 + 2 + 3 + 4 +

G|---------------------------------|
D|-------------------------------1-|
A|-----------------5-\-------------|
E|---------------------------------|
   1 + 2 + 3 + 4 + 1 + 2 + 3 + 4 +

Chorus
G|-----------------------------------------------------------------|
D|-1-----1-1-1---11----------------1-----1-1-1---11----------------|
A|-----------------1-----1-1-1---11----------------8-\-------------|
E|-------------------------------------------------------1-1-1---11|
   1 + 2 + 3 + 4 + 1 + 2 + 3 + 4 + 1 + 2 + 3 + 4 + 1 + 2 + 3 + 4 +

G|-----------------------------------------------------------------|
D|-----------------------------------------------------------------|
A|---------------------------------1-----3-----5---------------3-5-|
E|-3-----3-3-3---3-5-----5-5-5-------------------------------------|
   1 + 2 + 3 + 4 + 1 + 2 + 3 + 4 + 1 + 2 + 3 + 4 + 1 + 2 + 3 + 4 +

G|-----------------------------------------------------------------|
D|-1-----1-1-1---11------------------------------------------------|
A|-----------------8-\-\---------------------------0-------0-0-0-0-|
E|-----------------------1-1-1---113-----1-3-3---1-------3---------|
   1 + 2 + 3 + 4 + 1 + 2 + 3 + 4 + 1 + 2 + 3 + 4 + 1 + 2 + 3 + 4 +

G|-----------------------------------------------------------------|
D|-----------------------------------------------------------------|
A|-3-----1-3-3---3-5-----3-5-5---3-1-----3-----5-------------------|
E|-----------------------------------------------------------------|
   1 + 2 + 3 + 4 + 1 + 2 + 3 + 4 + 1 + 2 + 3 + 4 + 1 + 2 + 3 + 4 +

G|---------------------------------|
D|-1-----3---/-8-\-----------------|
A|---------------------------------|
E|-----------------3-3-3-\---------|
   1 + 2 + 3 + 4 + 1 + 2 + 3 + 4 +
Tabbed by Dave Vucko

            
            
Suggest correction
Creating personal tab
Creating personal tab
You can edit any tab online and save it as your Personal.

You can edit, replace or remove any tab part or add personal notes – all changes will be seen only by you.

Personal tabs can be accessed anytime from any device, even offline.
Learn more »
comments
print report bad tab
guest
You may want to rate the tab now too:
select rating
Wanna post a correction for this tab? Suggest correction