Oops, an error
Loading. Please wait.

Puella Magi Madoka Magica - Magia Tv Size tab

67 views 1 this week
no commentswrite comment
1 2 3 4 5
3 more votes to show rating
add to favorites
×
Save as Personal and add changes to this tab that will be seen only by you. Learn more ›
×
You can save this tab as Personal to edit and correct it or add notes. All changes will be seen only by you. Learn more »
launch autoscroll
font size
0
reset
how to read this tab
guitar tuner
edit
Autoscroll
slow
fast
+/-
esc
set tempo
stop
Author
Difficulty
intermediate
Video of me playing it here:
https://www.youtube.com/watch?v=P5w22fFrmJw

[Intro]
(Guitar 1 & 2)
  PM--------------------------------------------------------------------|
e|-----------------------------------|-----------------------------------|
B|-----------------------------------|-----------------------------------|
G|-----------------------------------|-----------------------------------|
D|-----------------------------------|-----------------------------------|
A|10--10--10-10--10-10--10-10--10-10-|10--10--10-10--10-10--10-10--10-10-|
E|-8---8---8--8---8--8---8--8---8--8-|-8---8---8--8---8--8---8--8---8--8-|

  PM--------------------------------------------------------------------|
e|-----------------------------------|-----------------------------------|
B|-----------------------------------|-----------------------------------|
G|-----------------------------------|-----------------------------------|
D|-----------------------------------|-----------------------------------|
A|10--10--10-10--10-10--10-10--10-10-|10--10--10-10--10-10--10-10--10-10-|
E|-8---8---8--8---8--8---8--8---8--8-|-8---8---8--8---8--8---8--8---8--8-|

[Verse]
(Guitar 1 & 2)
     PM--|    PM--|    PM       PM--|    PM--|    PM       PM--|    PM--|    PM       PM--|       PM--|
e|--------------------------|--------------------------|--------------------------|--------------------------|
B|--------------------------|--------------------------|--------------------------|--------------------------|
G|--------------------------|--------------------------|--------------------------|--------------------------|
D|10-------10-------10------|10-------10-------10------|10-------10-------10------|-6--------6--8--------8---|
A|10-------10-------10------|10-------10-------10------|10-------10-------10------|-6--------6--8--------8---|
E|-8--8--8--8--8--8--8--8---|-8--8--8--8--8--8--8--8---|-8--8--8--8--8--8--8--8---|-4--4--4--4--6--6--6--6---|

     PM--|    PM--|    PM       PM--|    PM--|    PM       PM--|    PM--|    PM       PM--|       PM--|
e|--------------------------|--------------------------|--------------------------|--------------------------|
B|--------------------------|--------------------------|--------------------------|--------------------------|
G|--------------------------|--------------------------|--------------------------|--------------------------|
D|10-------10-------10------|10-------10-------10------|10-------10-------10------|-6--------6--8--------8---|
A|10-------10-------10------|10-------10-------10------|10-------10-------10------|-6--------6--8--------8---|
E|-8--8--8--8--8--8--8--8---|-8--8--8--8--8--8--8--8---|-8--8--8--8--8--8--8--8---|-4--4--4--4--6--6--6--6---|

     PM--|    PM--|    PM       PM--|    PM--|    PM       PM--|    PM--|    PM-----|    PM--|
e|--------------------------|--------------------------|--------------------------|--------------------------|
B|--------------------------|--------------------------|--------------------------|--------------------------|
G|--------------------------|--------------------------|--------------------------|--------------------------|
D|-6--------6--------6------|-8--------8--------8------|10-------10-------10------|---10--------8-----5------|
A|-6--------6--------6------|-8--------8--------8------|10-------10-------10------|---10--------8-----5------|
E|-4--4--4--4--4--4--4--4---|-6--6--6--6--6--6--6--6---|-8--8--8--8--8--8--8--8---|-8--8--8--8--6-----3------|

     PM--|    PM--|    PM       PM--|    PM--|    PM       PM--|    PM--|    PM
e|--------------------------|--------------------------|--------------------------|--------------------------|
B|--------------------------|--------------------------|--------------------------|--------------------------|
G|--------------------------|--------------------------|--------------------------|--------------------------|
D|-6--------6--------6------|-8--------8--------8------|-6--------6--------6------|-8----8---8---------------|
A|-6--------6--------6------|-8--------8--------8------|-6--------6--------6------|-8----8---8--2----2---2---|
E|-4--4--4--4--4--4--4--4---|-6--6--6--6--6--6--6--6---|-4--4--4--4--4--4--4--4---|-6----6---6--3----3---3---|

(Guitar 1)
e|--------------------------|
B|--------------------------|
G|--------------------------|
D|--------------------------|
A|--------------------------|
E|-------------5----8---9---|

[Chorus]
(Guitar 1)
     PM--|    PM--|    PM       PM--|    PM--|    PM       PM--|    PM--|    PM       PM--|    PM--|    PM
e|--------------------------|--------------------------|--------------------------|--------------------------|
B|--------------------------|--------------------------|--------------------------|--------------------------|
G|--------------------------|--------------------------|--------------------------|--------------------------|
D|12-------12-------12------|12-------12-------12------|12-------12-------12------|12-------12-------12------|
A|12-------12-------12------|12-------12-------12------|12-------12-------12------|12-------12-------12------|
E|10-10-10-10-10-10-10-10---|10-10-10-10-10-10-10-10---|10-10-10-10-10-10-10-10---|10-10-10-10-10-10-10-10---|

(Guitar 2)
e|10-10-10-10-10-10-10-10---|10-10-10-10-10-10-10-10---|10-10-10-10-10-10-10-10---|10-10-10-10-10-10-10-10---|
B|--------------------------|--------------------------|--------------------------|--------------------------|
G|-7--7--7--7--7--7--7--7---|-7--7--7--7--7--7--7--7---|-7--7--7--7--7--7--7--7---|-7--7--7--7--7--7--7--7---|
D|--------------------------|--------------------------|--------------------------|--------------------------|
A|--------------------------|--------------------------|--------------------------|--------------------------|
E|--------------------------|--------------------------|--------------------------|--------------------------|

(Guitar 1)
     PM--|    PM--|    PM       PM--|    PM--|    PM       PM--|    PM--|    PM       PM--|    PM--|    PM
e|--------------------------|--------------------------|--------------------------|--------------------------|
B|--------------------------|--------------------------|--------------------------|--------------------------|
G|--------------------------|--------------------------|--------------------------|--------------------------|
D|-8--------8--------8------|-3--------3--------3------|-5--------5--------5------|-7--------7--------7------|
A|-8--------8--------8------|-3--------3--------3------|-5--------5--------5------|-7--------7--------7------|
E|-6--6--6--6--6--6--6--6---|-1--1--1--1--1--1--1--1---|-3--3--3--3--3--3--3--3---|-5--5--5--5--5--5--5--5---|

(Guitar 2)
e|10-10-10-10-10-10-10-10---|-8--8--8--8--8--8--8--8---|--------------------------|--------------------------|
B|--------------------------|--------------------------|-8--8--8--8--8--8--8--8---|-5--5--5--5--5--5--5--5---|
G|-7--7--7--7--7--7--7--7---|-5--5--5--5--5--5--5--5---|--------------------------|--------------------------|
D|--------------------------|--------------------------|-5--5--5--5--5--5--5--5---|-2--2--2--2--2--2--2--2---|
A|--------------------------|--------------------------|--------------------------|--------------------------|
E|--------------------------|--------------------------|--------------------------|--------------------------|

(Guitar 1)
     PM--|    PM--|    PM       PM--|    PM--|    PM       PM--|    PM--|    PM       PM--|    PM--|    PM
e|--------------------------|--------------------------|--------------------------|--------------------------|
B|--------------------------|--------------------------|--------------------------|--------------------------|
G|--------------------------|--------------------------|--------------------------|--------------------------|
D|12-------12-------12------|12-------12-------12------|-8--------8--------8------|-3--------3--------3------|
A|12-------12-------12------|12-------12-------12------|-8--------8--------8------|-3--------3--------3------|
E|10-10-10-10-10-10-10-10---|10-10-10-10-10-10-10-10---|-6--6--6--6--6--6--6--6---|-1--1--1--1--1--1--1--1---|

(Guitar 2)
e|10-10-10-10-10-10-10-10---|10-10-10-10-10-10-10-10---|10-10-10-10-10-10-10-10---|-8--8--8--8--8--8--8--8---|
B|--------------------------|--------------------------|--------------------------|--------------------------|
G|-7--7--7--7--7--7--7--7---|-7--7--7--7--7--7--7--7---|-7--7--7--7--7--7--7--7---|-5--5--5--5--5--5--5--5---|
D|--------------------------|--------------------------|--------------------------|--------------------------|
A|--------------------------|--------------------------|--------------------------|--------------------------|
E|--------------------------|--------------------------|--------------------------|--------------------------|

(Guitar 1)
     PM--|    PM--|    PM       PM--|    PM--|    PM       PM--|    PM--|    PM       PM--|
e|--------------------------|--------------------------|--------------------------|--------------------------|
B|--------------------------|--------------------------|--------------------------|--------------------------|
G|--------------------------|-7--------7--------7------|--------------------------|--------------------------|
D|-5--------5--------5------|-7--------7--------7------|-8--------8--------8------|10-------10-11----11------|
A|-5--------5--------5------|-5--5--5--5--5--5--5--5---|-8--------8--------8------|10-------10-11----11------|
E|-3--3--3--3--3--3--3--3---|--------------------------|-6--6--6--6--6--6--6--6---|-8--8--8--8--9--9--9--9---|

(Guitar 2)
e|10-10-10-10-10-10-10-10---|--------------------------|10-10-10-10-10-10-10-10---|-8--8--8--8--8--8--8--8---|
B|--------------------------|10-10-10-10-10-10-10-10---|--------------------------|--------------------------|
G|-7--7--7--7--7--7--7--7---|--------------------------|-7--7--7--7--7--7--7--7---|-5--5--5--5--6--6--6--6---|
D|--------------------------|-7--7--7--7--7--7--7--7---|--------------------------|--------------------------|
A|--------------------------|--------------------------|--------------------------|--------------------------|
E|--------------------------|--------------------------|--------------------------|--------------------------|

[Outro]
(Guitar 1)
  PM--------------------------------------------------------------------|
e|-----------------------------------|-----------------------------------|
B|-----------------------------------|-----------------------------------|
G|-----------------------------------|-----------------------------------|
D|-----------------------------------|-----------------------------------|
A|12--12--12-12--12-12--12-12--12-12-|12--12--12-12--12-12--12-12--12-12-|
E|10--10--10-10--10-10--10-10--10-10-|10--10--10-10--10-10--10-10--10-10-|

  PM--------------------------------------------------------------------|
e|-----------------------------------|-----------------------------------|
B|-----------------------------------|-----------------------------------|
G|-----------------------------------|-----------------------------------|
D|-----------------------------------|-----------------------------------|
A|12--12--12-12--12-12--12-12--12-12-|12--12--12-12--12-12--12-12--12-12-|
E|10--10--10-10--10-10--10-10--10-10-|10--10--10-10--10-10--10-10--10-10-|

(Guitar 2)
e|--------------------------|--------------------------|--------------------------|--------------------------|
B|--------------------------|--------------------------|--------------------------|--------------------------|
G|-7--------7---------------|-7--------7---------------|-7--------7---------------|-7--------7---------------|
D|-7--------7--------7\-----|-7--------7--------7\-----|-7--------7--------7\-----|-7--------7--------7\-----|
A|-5--------5--------7\-----|-5--------5--------7\-----|-5--------5--------7\-----|-5--------5--------7\-----|
E|-------------------5\-----|-------------------5\-----|-------------------5\-----|-------------------5\-----|

(Guitar 1)
  PM--------------------------------------------------------------------|
e|-----------------------------------|-----------------------------------|
B|-----------------------------------|-----------------------------------|
G|-----------------------------------|-----------------------------------|
D|-----------------------------------|-----------------------------------|
A|12--12--12-12--12-12--12-12--12-12-|12--12--12-12--12-12--12-12--12-12-|
E|10--10--10-10--10-10--10-10--10-10-|10--10--10-10--10-10--10-10--10-10-|

(Guitar 2)
e|--------------------------|--------------------------|
B|--------------------------|--------------------------|
G|-7--------7---------------|-7--------7---------------|
D|-7--------7--------7\-----|-7--------7--------7\-----|
A|-5--------5--------7\-----|-5--------5--------7\-----|
E|-------------------5\-----|-------------------5\-----|

(Guitar 1)
e|--------------------------|--------------------------|
B|--------------------------|--------------------------|
G|--------------------------|--------------------------|
D|12------------------------|--------------------------| [Pick Scrape]
A|12------------------------|--------------------------|
E|10------------------------|--------------------------|

(Guitar 2)
e|--------------------------|--------------------------|
B|--------------------------|--------------------------|
G|-7------------------------|--------------------------|
D|-7------------------------|--------------------------| [Pick Scrape]
A|-5------------------------|--------------------------|
E|--------------------------|--------------------------|


************************************

| PM  Palm mute
| \   Slide down

************************************

            
            
Suggest correction
Creating personal tab
Creating personal tab
You can edit any tab online and save it as your Personal.

You can edit, replace or remove any tab part or add personal notes – all changes will be seen only by you.

Personal tabs can be accessed anytime from any device, even offline.
Learn more »
Give kudos to tab author, rate the tab!
1 2 3 4 5
comments
print report bad tab
guest
You may want to rate the tab now too:
select rating
Wanna post a correction for this tab? Suggest correction