Oops, an error
Loading. Please wait.

Re Zero Kara Hajimeru Isekai Seikatsu - Stay Alive Tab

1,678 views 99 this week
1 commentread comment
1 2 3 4 5
1 last vote to show rating
add to favorites
launch autoscroll
font size
0
reset
how to read this tab
guitar tuner
Autoscroll
slow
fast
+/-
esc
set tempo
stop
Help us to improve Ultimate-Guitar.com Take our survey!
×
Author
Difficulty
Tuning
Capo
intermediate
D A D G B E
1st fret
Tabbed by: Joshua Garcia (joshuag523@aol.com)

Tabs for the song: Stay Alive by Rie Takahashi [Re:Zero Kara Hajimeru Isekai Seikatsu ED 2]
Please rate and let me know if you have any corrections. Thank you.


Tuning: Drop D (D A D G B E)


*Capo - 1st Fret*


[Intro]
Guitar 1 (Left):
E||----------------------------------------------------|
B||----------0h3-------------------0h3--------------3--|
G||------0-------0~------------0-------0~---------0----|
D||------------------------2--------------------2------|
A||--3----------------------------------------2--------|
D||----------------------------------------------------|


E||-------------------------------------------0--------|
B||----------0h3-------------------0h3----------3------|
G||------0-------0~------------0-------0~---------0----|
D||------------------------2------------------------0--|
A||--3-------------------------------------------------|
D||----------------------------------------------------|


Guitar 2 (Right):
E||--3-------3h5-----------2-------2/3--------------3--|
B||------3-------3~------------3-------3~---------3----|
G||---------------------------------------------0------|
D||-------------------------------------------0--------|
A||----------------------------------------------------|
D||----------------------------------------------------|


E||--3-------3h5-----------7-------7h10--------10--------|
B||------3-------3~------------8--------8~--------8------|
G||-------------------------------------------------0----|
D||---------------------------------------------------0--|
A||------------------------------------------------------|
D||------------------------------------------------------|


Guitar 3 (Mid):
E||----------------------------------------------|
B||--12-------12\10-10~--------10-------10\8-8~--|
G||-------0-------------------------0------------|
D||----------------------------------------------|
A||----------------------------------------------|
D||----------------------------------------------|


E||--------------------------------------------|
B||--12-------12\10-10~--------7-------7/8-8~--|
G||-------0------------------------0-----------|
D||--------------------------------------------|
A||--------------------------------------------|
D||--------------------------------------------|



[Verse]
Guitar 1 (Left):
E||----------------------------------------------------|
B||----------0h3-------------------0h3--------------3--|
G||------0-------0~------------0-------0~---------0----|
D||------------------------2--------------------2------|
A||--3----------------------------------------2--------|
D||----------------------------------------------------|


E||-------------------------------------------0--------|
B||----------0h3-------------------0h3----------3------|
G||------0-------0~------------0-------0~---------0----|
D||------------------------2------------------------0--| x2
A||--3-------------------------------------------------|
D||----------------------------------------------------|


Guitar 2 (Right):
E||--3-------3h5-----------2-------2/3--------------3--|
B||------3-------3~------------3-------3~---------3----|
G||---------------------------------------------0------|
D||-------------------------------------------0--------|
A||----------------------------------------------------|
D||----------------------------------------------------|


E||--3-------3h5-----------7-------7h10--------10--------|
B||------3-------3~------------8--------8~--------8------|
G||-------------------------------------------------0----|
D||---------------------------------------------------0--| x2
A||------------------------------------------------------|
D||------------------------------------------------------|



[Chorus]
Guitar 1:
E||--7-------7-------8-------7-------5-------5-------7-------5------|
B||------8-------8-------8-------8-------7-------7-------7-------5--|
G||-----------------------------------------------------------------|
D||-----------------------------------------------------------------|
A||-----------------------------------------------------------------|
D||-----------------------------------------------------------------|


E||--7-------7-------8-------10-------5-------5-------7-------7------|
B||------8-------8-------8--------8-------7-------7-------8-------8--|
G||------------------------------------------------------------------|
D||------------------------------------------------------------------|
A||------------------------------------------------------------------|
D||------------------------------------------------------------------|


E||--7-------7-------8-------10-------5-------5-------7-------5------|
B||------8-------8-------8--------8-------7-------7-------7-------5--|
G||------------------------------------------------------------------|
D||------------------------------------------------------------------|
A||------------------------------------------------------------------|
D||------------------------------------------------------------------|


E||--3-------3-------5-------5-------7-------7-------8-------10------|
B||------5-------5-------7-------7-------8-------8-------8--------8--|
G||------------------------------------------------------------------|
D||------------------------------------------------------------------|
A||------------------------------------------------------------------|
D||------------------------------------------------------------------|


Guitar 2:
E||-----------------------------------------------------------------|
B||-----------------------------------------------------------------|
G||--5---5---5---5-----------------------------------4---4---4---4--|
D||--5---5---5---5---7---7---7---7---2---2---2---2---4---4---4---4--|
A||--3---3---3---3---5---5---5---5---2---2---2---2---2---2---2---2--|
D||------------------0---0---0---0---2---2---2---2------------------|


E||-----------------------------------------------------------------|
B||-----------------------------------------------------------------|
G||--5---5---5---5--------------------------------------------------|
D||--5---5---5---5---7---7---7---7---2---2---2---2---2---2---2---2--|
A||--3---3---3---3---5---5---5---5---2---2---2---2---2---2---2---2--|
D||------------------0---0---0---0---2---2---2---2---2---2---2---2--|


E||-------------------------------------------------------------------|
B||-------------------------------------------------------------------|
G||--5---5---5---5-5-5------------------------------------------------|
D||--5---5---5---5-5-5-7-7---7---7---1---1---1---1-1-1/2---2---2---2--|
A||--3---3---3---3-3-3-5-5---5---5---2---2---2---2-2-2/2---2---2---2--|
D||--------------------0-0---0---0---1---1---1---1-1-1/2---2---2---2--|


E||-----------------------------------------------------------------|
B||-----------------------------------------------------------------|
G||------------------4---4---4---4---5---5---5---5------------------|
D||--7---7---7---7---4---4---4---4---5---5---5---5---7---7---7---7--|
A||--7---7---7---7---2---2---2---2---3---3---3---3---5---5---5---5--|
D||--7---7---7---7-----------------------------------0---0---0---0--|



[Pre-Verse]
Guitar 1:
E||----------------------------------------------|
B||--12-------12\10-10~--------10-------10\8-8~--|
G||-------0-------------------------0------------|
D||----------------------------------------------|
A||----------------------------------------------|
D||----------------------------------------------|


E||--------------------------------------------|
B||--12-------12\10-10~--------7-------7/8-8~--|
G||-------0------------------------0-----------|
D||--------------------------------------------|
A||--------------------------------------------|
D||--------------------------------------------|


Guitar 2:
E||-----------------------------------------------------0--------|
B||--3-------3----------(3--3-----)-0----------------------3-----|
G||------0-----0--------(---------)-----0---0---0~------------0--|
D||--------------5~-----(------4h5)-----------5------------------|
A||--------------------------------------------------------------|
D||--------------------------------------------------------------|


E||-----------------------------------------------------0--------|
B||--3-------3---3~-----(3--3-----)-0----------------------3-----|
G||------0-----0--------(---------)-----0---0---0~------------0--|
D||---------------------(------4h5)-----------5------------------|
A||--------------------------------------------------------------|
D||--------------------------------------------------------------|



[Verse]
Guitar 1:
E||-------------------------------------------------------------------|
B||-------------------------------------------------------------------|
G||-------------------------------------------------------------------|
D||--5-5-5-5-5-5-5-5-5-5-5-5-5-5-5-5-9-9-9-9-9-9-9-9-9-9-9-9-9-9-9-9--|
A||--3-3-3-3-3-3-3-3-3-3-3-3-3-3-3-3-7-7-7-7-7-7-7-7-7-7-7-7-7-7-7-7--|
D||-------------------------------------------------------------------|
       . . . . . . . . . . . . . . .   . . . . . . . . . . . . . . .


E||-------------------------------------------------------------------|
B||-------------------------------------------------------------------|
G||------------------------------------------------------------0-0-0--|
D||--5-5-5-5-5-5-5-5-5-5-5-5-5-5-5-5-9-9-9-9-9-9-9-9-9-9-9-9-9-9-9-9--|
A||--3-3-3-3-3-3-3-3-3-3-3-3-3-3-3-3-7-7-7-7-7-7-7-7-7-7-7-7-7--------|
D||-------------------------------------------------------------------|
       . . . . . . . . . . . . . . .   . . . . . . . . . . . .



Guitar 1 (Left):
E||----------------------------------------------------|
B||----------0h3-------------------0h3--------------3--|
G||------0-------0~------------0-------0~---------0----|
D||------------------------2--------------------2------|
A||--3----------------------------------------2--------|
D||----------------------------------------------------|


E||-------------------------------------------0--------|
B||----------0h3-------------------0h3----------3------|
G||------0-------0~------------0-------0~---------0----|
D||------------------------2------------------------0--|
A||--3-------------------------------------------------|
D||----------------------------------------------------|


Guitar 2 (Right):
E||--3-------3h5-----------2-------2/3--------------3--|
B||------3-------3~------------3-------3~---------3----|
G||---------------------------------------------0------|
D||-------------------------------------------0--------|
A||----------------------------------------------------|
D||----------------------------------------------------|


E||--3-------3h5-----------7-------7h10--------10--------|
B||------3-------3~------------8--------8~--------8------|
G||-------------------------------------------------0----|
D||---------------------------------------------------0--|
A||------------------------------------------------------|
D||------------------------------------------------------|


Guitar 3 (Mid):
E||----------------------------------------------|
B||--12-------12\10-10~--------10-------10\8-8~--|
G||-------0-------------------------0------------|
D||----------------------------------------------|
A||----------------------------------------------|
D||----------------------------------------------|


E||--------------------------------------------|
B||--12-------12\10-10~--------7-------7/8-8~--|
G||-------0------------------------0-----------|
D||--------------------------------------------|
A||--------------------------------------------|
D||--------------------------------------------|


Guitar 4:
E||--------------------------------------------|
B||--------------------------------------------|
G||-------------------------------12-12-12-12--|
D||--12\--2-2-2-2-2-2-2-2-2-2-2-2-x--x--x--x---|
A||--12\--2-2-2-2-2-2-2-2-2-2-2-2-10-10-10-10--|
D||--12\--2-2-2-2-2-2-2-2-2-2-2-2--------------|



[Pre-Chorus]
Guitar 1:
E||--------------------------------------------------------------|
B||----------------------------------------------------------0~--|
G||------------------4~--------------5---5---5---5---5---5---0~--|
D||--7~--------------4~--------------5---5---5---5---5---5---0~--|
A||--7~--------------2~--------------3---3---3---3---3---3-------|
D||--7~----------------------------------------------------------|



[Chorus]
Guitar 1:
E||--7-------7-------8-------7-------5-------5-------7-------5------|
B||------8-------8-------8-------8-------7-------7-------7-------5--|
G||-----------------------------------------------------------------|
D||-----------------------------------------------------------------|
A||-----------------------------------------------------------------|
D||-----------------------------------------------------------------|


E||--7-------7-------8-------10-------5-------5-------7-------7------|
B||------8-------8-------8--------8-------7-------7-------8-------8--|
G||------------------------------------------------------------------|
D||------------------------------------------------------------------|
A||------------------------------------------------------------------|
D||------------------------------------------------------------------|


E||--7-------7-------8-------10-------5-------5-------7-------5------|
B||------8-------8-------8--------8-------7-------7-------7-------5--|
G||------------------------------------------------------------------|
D||------------------------------------------------------------------|
A||------------------------------------------------------------------|
D||------------------------------------------------------------------|


E||--3-------3-------5-------5-------7-------7-------8-------10------|
B||------5-------5-------7-------7-------8-------8-------8--------8--|
G||------------------------------------------------------------------|
D||------------------------------------------------------------------|
A||------------------------------------------------------------------|
D||------------------------------------------------------------------|


Guitar 2:
E||-----------------------------------------------------------------|
B||-----------------------------------------------------------------|
G||--5---5---5---5-----------------------------------4---4---4---4--|
D||--5---5---5---5---7---7---7---7---2---2---2---2---4---4---4---4--|
A||--3---3---3---3---5---5---5---5---2---2---2---2---2---2---2---2--|
D||------------------0---0---0---0---2---2---2---2------------------|


E||-----------------------------------------------------------------|
B||-----------------------------------------------------------------|
G||--5---5---5---5--------------------------------------------------|
D||--5---5---5---5---7---7---7---7---2---2---2---2---2---2---2---2--|
A||--3---3---3---3---5---5---5---5---2---2---2---2---2---2---2---2--|
D||------------------0---0---0---0---2---2---2---2---2---2---2---2--|


E||-------------------------------------------------------------------|
B||-------------------------------------------------------------------|
G||--5---5---5---5-5-5------------------------------------------------|
D||--5---5---5---5-5-5-7-7---7---7---1---1---1---1-1-1/2---2---2---2--|
A||--3---3---3---3-3-3-5-5---5---5---2---2---2---2-2-2/2---2---2---2--|
D||--------------------0-0---0---0---1---1---1---1-1-1/2---2---2---2--|


E||-----------------------------------------------------------------|
B||-----------------------------------------------------------------|
G||------------------4---4---4---4---5---5---5---5------------------|
D||--7---7---7---7---4---4---4---4---5---5---5---5---7---7---7---7--|
A||--7---7---7---7---2---2---2---2---3---3---3---3---5---5---5---5--|
D||--7---7---7---7-----------------------------------0---0---0---0--|



[Bridge]
Guitar 1:
E||--------------------------------------------------------------------------------------------|
B||--------------------------------------------------------------------------------------------|
G||--12---12---12---12---14---14---14---14---16-16-16---16-16-17-17-17---16-16-16-16-16-16-16--|
D||--x----x----x----x----x----x----x----x----x--x--x----x--x--x--x--x----x--x--x--x--x--x--x---| x2
A||--10---10---10---10---12---12---12---12---14-14-14---14-14-15-15-15---14-14-14-14-14-14-14--|
D||--------------------------------------------------------------------------------------------|


Guitar 2:
E||-------------------------------------------------------------------|
B||-------------------------------------------------------------------|
G||-------------------------------------------------------------------|
D||--1---1---1---1---3---3---3---3---5-5-5---5-5-5-5-5---5-5-5-5-5-5--| x2
A||--1---1---1---1---3---3---3---3---5-5-5---5-5-5-5-5---5-5-5-5-5-5--|
D||--1---1---1---1---3---3---3---3---5-5-5---5-5-5-5-5---5-5-5-5-5-5--|



Guitar 1:
E||--3-------3-------3-------3-------5-------5-------5-------5------|
B||------5-------5-------5-------5-------7-------7-------7-------7--|
G||-----------------------------------------------------------------|
D||-----------------------------------------------------------------|
A||-----------------------------------------------------------------|
D||-----------------------------------------------------------------|


E||--7-------7-------8-------10-------5-------5-------7-------7------|
B||------8-------8-------8--------8-------7-------7-------8-------8--|
G||------------------------------------------------------------------|
D||------------------------------------------------------------------|
A||------------------------------------------------------------------|
D||------------------------------------------------------------------|


Guitar 2:
E||-------------------------------------------------------------------|
B||-------------------------------------------------------------------|
G||----------------------------------4---4-4-4-4-4---4-4-4-4-4-4-4-4--|
D||--8---8-8-8-8-8---8-8-8-8-8-8-8-8-4---4-4-4-4-4---4-4-4-4-4-4-4-4--|
A||--8---8-8-8-8-8---8-8-8-8-8-8-8-8-2---2-2-2-2-2---2-2-2-2-2-2-2-2--|
D||--8---8-8-8-8-8---8-8-8-8-8-8-8-8----------------------------------|


E||-------------------------------------------------------------------|
B||-------------------------------------------------------------------|
G||--5---5-5-5-5-5---5-5-5-5-5-5-5-5-4---4---4---4---4-4-4-4-4-4-4-4--|
D||--5---5-5-5-5-5---5-5-5-5-5-5-5-5-4---4---4---4---4-4-4-4-4-4-4-4--|
A||--3---3-3-3-3-3---3-3-3-3-3-3-3-3-2---2---2---2---2-2-2-2-2-2-2-2--|
D||-------------------------------------------------------------------|



[Interlude]
Guitar 1 (Left):
E||----------------------------------------------------|
B||----------0h3-------------------0h3--------------3--|
G||------0-------0~------------0-------0~---------0----|
D||------------------------2--------------------2------|
A||--3----------------------------------------2--------|
D||----------------------------------------------------|


E||-------------------------------------------0--------|
B||----------0h3-------------------0h3----------3------|
G||------0-------0~------------0-------0~---------0----|
D||------------------------2------------------------0--| x2
A||--3-------------------------------------------------|
D||----------------------------------------------------|


E||----------------------------------------------------|
B||----------0h3-------------------0h3--------------3--|
G||------0-------0~------------0-------0~---------0----|
D||------------------------2--------------------2------|
A||--3----------------------------------------2--------|
D||----------------------------------------------------|


E||------------------|
B||----------0h3-----|
G||------0-------0~--|
D||------------------|
A||--3---------------|
D||------------------|


Guitar 2 (Right):
E||--3-------3h5-----------2-------2/3--------------3--|
B||------3-------3~------------3-------3~---------3----|
G||---------------------------------------------0------|
D||-------------------------------------------0--------|
A||----------------------------------------------------|
D||----------------------------------------------------|


E||--3-------3h5-----------7-------7h10--------10--------|
B||------3-------3~------------8--------8~--------8------|
G||-------------------------------------------------0----|
D||---------------------------------------------------0--| x2
A||------------------------------------------------------|
D||------------------------------------------------------|


E||--3-------3h5-----------2-------2/3--------------3--|
B||------3-------3~------------3-------3~---------3----|
G||---------------------------------------------0------|
D||-------------------------------------------0--------|
A||----------------------------------------------------|
D||----------------------------------------------------|


E||--3-------3h5-----|
B||------3-------3~--|
G||------------------|
D||------------------|
A||------------------|
D||------------------|


Guitar 3 (Mid):
E||----------------------------------------------|
B||--12-------12\10-10~--------10-------10\8-8~--|
G||-------0-------------------------0------------|
D||----------------------------------------------|
A||----------------------------------------------|
D||----------------------------------------------|


E||--------------------------------------------|
B||--12-------12\10-10~--------7-------7/8-8~--|
G||-------0------------------------0-----------|
D||--------------------------------------------| x2
A||--------------------------------------------|
D||--------------------------------------------|


E||----------------------------------------------|
B||--12-------12\10-10~--------10-------10\8-8~--|
G||-------0-------------------------0------------|
D||----------------------------------------------|
A||----------------------------------------------|
D||----------------------------------------------|


E||----------------------|
B||--12-------12\10-10~--|
G||-------0--------------|
D||----------------------|
A||----------------------|
D||----------------------|



[Chorus]
Guitar 1 (Left):
E||-------------------------|
B||-------------------------|
G||--0---------7-7-7-7-7-7--|
D||--0---12\---x-x-x-x-x-x--|
A||------12\---5-5-5-5-5-5--|
D||------12\----------------|


Guitar 2 (Right):
E||-------------------------------|
B||-------------------------------|
G||--0---------11-11-11-11-11-11--|
D||--0---12\---x--x--x--x--x--x---|
A||------12\---9--9--9--9--9--9---|
D||------12\----------------------|


Guitar 1/2:
E||---------------------------------------------------|
B||---------------------------------------------------|
G||--5------5----------------------------------4---4--|
D||--5------5------7------7------2------2------4---4--|
A||--3------3------5------5------2------2------2---2--|
D||----------------0------0------2------2-------------|


Guitar 1:
E||---------------|
B||---------------|
G||--------4h5h7--|
D||--4h5h7--------|
A||---------------|
D||---------------|


Guitar 2:
E||---------------|
B||---------------|
G||--------0h2h4--|
D||--0h2h4--------|
A||---------------|
D||---------------|


Guitar 1:
E||--7-------7-------8-------7-------5-------5-------7-------5------|
B||------8-------8-------8-------8-------7-------7-------7-------5--|
G||-----------------------------------------------------------------|
D||-----------------------------------------------------------------|
A||-----------------------------------------------------------------|
D||-----------------------------------------------------------------|


E||--7-------7-------8-------10-------5-------5-------7-------7------|
B||------8-------8-------8--------8-------7-------7-------8-------8--|
G||------------------------------------------------------------------|
D||------------------------------------------------------------------|
A||------------------------------------------------------------------|
D||------------------------------------------------------------------|


E||--7-------7-------8-------10-------5-------5-------7-------5------|
B||------8-------8-------8--------8-------7-------7-------7-------5--|
G||------------------------------------------------------------------|
D||------------------------------------------------------------------|
A||------------------------------------------------------------------|
D||------------------------------------------------------------------|


E||--3-------3-------5-------5-------7-------7-------8-------10------|
B||------5-------5-------7-------7-------8-------8-------8--------8--|
G||------------------------------------------------------------------|
D||------------------------------------------------------------------|
A||------------------------------------------------------------------|
D||------------------------------------------------------------------|


Guitar 2:
E||-----------------------------------------------------------------|
B||-----------------------------------------------------------------|
G||--5---5---5---5--------------------------------------------------|
D||--5---5---5---5---7---7---7---7---2---2---2---2---2---2---2---2--|
A||--3---3---3---3---5---5---5---5---2---2---2---2---2---2---2---2--|
D||------------------0---0---0---0---2---2---2---2---2---2---2---2--|


E||-------------------------------------------------------------------|
B||-------------------------------------------------------------------|
G||--5---5---5---5-5-5------------------------------------------------|
D||--5---5---5---5-5-5-7-7---7---7---1---1---1---1-1-1/2---2---2---2--|
A||--3---3---3---3-3-3-5-5---5---5---2---2---2---2-2-2/2---2---2---2--|
D||--------------------0-0---0---0---1---1---1---1-1-1/2---2---2---2--|


E||-----------------------------------------------------------------|
B||-----------------------------------------------------------------|
G||------------------4---4---4---4---5---5---5---5------------------|
D||--7---7---7---7---4---4---4---4---5---5---5---5---7---7---7---7--|
A||--7---7---7---7---2---2---2---2---3---3---3---3---5---5---5---5--|
D||--7---7---7---7-----------------------------------0---0---0---0--|



[Outro]
Guitar 1:
E||----------------------------------------------|
B||--12-------12\10-10~--------10-------10\8-8~--|
G||-------0-------------------------0------------|
D||----------------------------------------------|
A||----------------------------------------------|
D||----------------------------------------------|


E||--------------------------------------------|
B||--12-------12\10-10~--------7-------7/8-8~--|
G||-------0------------------------0-----------|
D||--------------------------------------------|
A||--------------------------------------------|
D||--------------------------------------------|


Guitar 2:
E||-----------------------------------------------------0--------|
B||--3-------3----------(3--3-----)-0----------------------3-----|
G||------0-----0--------(---------)-----0---0---0~------------0--|
D||--------------5~-----(------4h5)-----------5------------------|
A||--------------------------------------------------------------|
D||--------------------------------------------------------------|


E||-------------------------------------------------|
B||--3-------3---3~-----(3--3-----)-0---------------|
G||------0-----0--------(---------)-----0---0---0~--|
D||---------------------(------4h5)-----------5-----|
A||-------------------------------------------------|
D||-------------------------------------------------|


Guitar 1/2:
E||-----------|
B||--8-8-8-8--|
G||--7-7-7-7--|
D||--x-x-x-x--|
A||--7-7-7-7--|
D||-----------|





*****************************
-Tablature Legend-

 h   hammer-on
 p   pull-off
 b   bend
 pb  pre-bend
 r   release bend
 ~   hold / vibrato
 .   palm mute
 /   slide up
 \   slide down
 *   pinch harmonic
 '   natural harmonic
 x   mute note
 T   tap

*****************************
Suggest correction
Give kudos to tab author, rate the tab!
1 2 3 4 5
comments
print report bad tab
1 comment total.
+1 reply
ekrclrhfhrmd 72 Sep 23, 2016 01:33 PM

Thank you VERY MUCH! EMT!

guest
You may want to rate the tab now too:
select rating
Wanna post a correction for this tab? Suggest correction