Oops, an error
Loading. Please wait.

Regular Show - Party Tonight Tab

65,077 views 138 this week
2 commentsread comments
1 2 3 4 5
accurate
x 6
add to favorites
launch autoscroll
font size
0
reset
how to read this tab
guitar tuner
Autoscroll
slow
fast
+/-
esc
set tempo
stop
Help us to improve Ultimate-Guitar.com Take our survey!
×
Author
Difficulty
novice
Title: Party Tonight
Writer: Sean Szles
Performers: Mordecai & The Rigbys
Cartoon Network's REGULAR SHOW created by J.G. Quintel
Tabbed by: ME (MrkCmblz) 

STANDARD TUNING: E B G D A E

[Intro]
e|-----------|
B|-----------|
G|-----7-----|   Play 2X
D|-----7-----|                                 USE HEAVY DISTORTION FOR THE INTRO,
A|-----5-----|                                     VERSES, AND THE CHORUS
E|-----------|

 ALTERNATE PICKING
e|----------------------------------------------------|
B|----------------------------------------------------|
G|--7-------------------------------------------------|
D|-----10--7--10--7-----------------------------------|  Repeat this about 7 or 8 times
A|----------------------10--8--7---------------7------|  (Listen to the song and play along to see)
E|----------------------------------10--8--10---------|

and play this note after the above riff...

e|----------|
B|----------|
G|----------|
D|----------|
A|----------|
E|---10-----|  Let ring.

There are two other guitars that harmonize on the track (you can also use one 
guitar with the delay effect or a loop pedal, or even a harmonizer, to achieve the 
harmonizing guitars) but it's up to you to figure out the other two.
 
[Bridge]
Try to figure out the progression with the chords, play along with the song and 
you’ll get the rhythm

e|-----------------------------------|-------------------------------|
B|-----------------------------------|-------------------------------|
G|-----7----------------7------\5----|----------------------7---5----|
D|-----7 ---------------7------\5----|---3--------/8--------7---5----| Play two times
A|-----5-5-5-5-5*-------5------\3----|---3--------/8--------5---3----|
E|-----------------------------------|---1-1-1*---/6-6-6*------------|
       |---pm---|                         |pm|      |pm|

[Chorus]

 * = strum along with the rhythm
                             "party to- night -ight
e|----------------------|-----------------------------|
B|----------------------|-----------------------------|
G|---3*----2*-----7*----|-----------5*----5---3-------|
D|---3-----2------7-----|----3*-----5-----5---3-------| Play two times
A|---1-----0------5-----|----3------3-----3---1-------|
E|----------------------|----1------------------------|
 
e|-------------------------|
B|-------------------------|
G|-----------5*----5---3---|
D|----3*-----5-----5---3---|  Play this again after
A|----3------3-----3---1---|   the second time^^
E|----1--------------------|


[Bridge]
(before the solo) - CLEAN WITH

e|----------------------------------------------------------------------|
B|----------------------------------------------------------------------|
G|---7---9-10-9--7--9---9----17-15-17---15-14-15--14-15-17--19-17-12----|
D|----------------------------------------------------------------------| Play this twice
A|----------------------------------------------------------------------|
E|----------------------------------------------------------------------|

[Verse]
[Chorus] 

************************************
  
* = strum/gallop with the rhythm
/ \ = Slide
|pm| = Palm Mute 

************************************
Suggest correction
comments
print report bad tab
2 comments total.
+4 reply
fiveifrenzy6 40 wrote on March 6 2011, 02:11 am

I tried tabbing out the solo myself and this is what I got with as much of the solo you can hear.


|-----------15-17-18-20-18-20-18-17-18-17-15---------------|
|-15-17-18-----------------------------------18-17-15-17---|
|----------------------------------------------------------|
|----------------------------------------------------------|
|----------------------------------------------------------|
|----------------------------------------------------------|

|----------------------------------------------------------|
|-18---17--15h17h15----------------------------------------|
|-------------------17-15-17-------------------------------|
|----------------------------17----------------------------|
|----------------------------------------------------------|
|----------------------------------------------------------|

that's the best i can do. just listen and play this along with the rhythm of the solo. it sounds right to me.

0 reply
kovacs13shred 10 wrote on June 14 2012, 10:38 pm

and if you listen to the very end he does a distoted super picking on the A string. what you do is on the A string tremolo pick on the bridge but you have to do that picking on the same beat so do the bridge beat but with tremolo picking. then for the 17 15 17 , 15 14 15 you will do a hammeron pull off fast then hammeron 14 15 17 fast and 19 17 pulloff slide to 12. again all on the A string. yo welcome.

guest
You may want to rate the tab now too:
select rating
Please do not post tabs as comments. Select "correction" instead!