Oops, an error
Loading. Please wait.

Sailor Moon Theme Tab

version 1
version 1

Whole song

54,876 views 90 this week
6 commentsread comments
1 2 3 4 5
x 20
add to favorites
×
Save as Personal and add changes to this tab that will be seen only by you. Learn more ›
×
You can save this tab as Personal to edit and correct it or add notes. All changes will be seen only by you. Learn more »
save as personal
new!
launch autoscroll
font size
0
reset
how to read this tab
guitar tuner
Autoscroll
slow
fast
+/-
esc
set tempo
stop
tuned to e

e|---------0----3----7------7-5------5-3----2----5-----------------------------|
B|---0-------------------------------------------------------------------------|
G|-----------------------------------------------------------------------------|
D|-----------------------------------------------------------------------------|
A|-----------------------------------------------------------------------------|
E|-----------------------------------------------------------------------------|

e|--------------2----5------5-3------3-2----0----3-----------------------------|
B|--0----4---------------------------------------------------------------------|
G|-----------------------------------------------------------------------------|
D|-----------------------------------------------------------------------------|
A|-----------------------------------------------------------------------------|
E|-----------------------------------------------------------------------------|

e|--------0----3----7------7-5------5-7----10----8-----------------------------|
B|--0--------------------------------------------------------------------------|
G|-----------------------------------------------------------------------------|
D|-----------------------------------------------------------------------------|
A|-----------------------------------------------------------------------------|
E|-----------------------------------------------------------------------------|

e|-----8-7-5-7----5----3-2----0--8-7-5-7----12-12-12/0-------------------------|
B|-----------------------------------------------------------------------------|
G|-----------------------------------------------------------------------------|
D|-----------------------------------------------------------------------------|
A|-----------------------------------------------------------------------------|
E|-----------------------------------------------------------------------------|



************************************

| /  Slide up

************************************
Suggest correction
comments
print report bad tab
6 comments total. Showing first comments.
+3 reply
soulgazer 30 Apr 08, 2007 04:33 AM

its the vocals tab, nice.

+1 reply
Elsnickerdoodle 10 Sep 08, 2007 09:01 AM

omg im soooooooo pissed i tabbed-(sp?) this tab on my own last year and i was going to post it today but someone beat me to it!T.T......sight but your intro is incomplete this is what i had

e---------------------------------------------------
b---------------------------------------------------
g---------------------------------------------------
a-------------4-4----6-5--5-6-8-7-------------------
d-------------4-4----6-5--5-6-8-7-------------------
e--0/---------2-2----4-3--3-4-6-5-------------------

but i love your vocal melody^^

0 reply
Vintrlos 10 Jan 04, 2009 10:48 PM

sounds great, more sailor moon tabs would be nice, for example http://www.youtube.com/watch?v=Y0pgr-syrr8&feature=related

guest
Wanna post a correction for this tab? Suggest correction