Oops, an error
Loading. Please wait.

Sailor Moon Theme Tab

version 3
version 3

Whole song

10,741 views 66 this week
no commentswrite comment
1 2 3 4 5
excellent!
x 10
add to favorites
launch autoscroll
font size
0
reset
how to read this tab
guitar tuner
Tab Pro tools
  • play this tab
  • loop segment
  • change instrument
  • show fretboard
  • metronome
×
Best way to learn
"Sailor Moon Theme"
Autoscroll
slow
fast
+/-
esc
set tempo
stop
Contributor
Difficulty
intermediate
-------------------------------------------------------------------------------
                             Sailor Moon Theme - Misc Cartoons
-------------------------------------------------------------------------------
Tabbed by: Sean Sullivan
E-mail: themindsnexus@hotmail.com               

Tuning: Standard EADGBe

Chords used (the phrasing is important):

Cm    - x 3 5 5 4 3
G     - 3 5 5 4 3 3
Fsus4 - x 8 10 10 11 8
Fm    - x 8 10 10 9 8
C9add7- x 3 2 3 4 x


Intro Riff:

e|-------------------------------------|
B|-------------------------------------|
G|-------------------------------------|
D|---------------------------5-6-5~----|
A|-------------------6-5---------------|
E|-15//////--2-3---------6-------------|

 Cm                G
Fighting evil by moonlight
 G                Cm
Winning love by daylight
Cm                   Fsus4  Fm  
Never running from a real fight
           Cm         G     Cm
She is the one named Sailor Moon

          Cm                      G
She will never turn her back on a friend
        G                Cm  
She is always there to defend
           Cm                 Fsus4 Fm 
She is the one on whom we can de  - pend
           Cm        G 
She is the one named Sailor

        Cm 
Sailor Venus
        G 
Sailor Mercury
        G
Sailor Mars
        Cm
Sailor Jupiter
      Cm                  Fsus4  Fm
With secret powers all so new to her
           Cm         G     Cm 
She is the one named Sailor Moon


Solo!
     Fm                          Cm                      Fm 
e|--------------------------------------13b15br13p11---------------------------|
B|-4\13~---13-15-16-15~----13p11h13~----------------13p11h13~---13-15-16-18\---|
G|-----------------------------------------------------------------------------|
D|-----------------------------------------------------------------------------|
A|-----------------------------------------------------------------------------|
E|-----------------------------------------------------------------------------|


    G
e|-------------------------------------|
B|-------------------------------------|
G|-------------------------------------|
D|---------0-1-0----------6-5~---------|
A|-----------------5-6-5---------------|
E|--3-2-3------------------------------|

 Cm                G
Fighting evil by moonlight
 G                Cm
Winning love by daylight
          Cm              Fsus4 Fm
With her Sailor Scouts to help  fight
           Cm        G      Cm
She is the one named Sailor Moon
           Cm        G      Cm
She is the one named Sailor Moon
           G                Cm    C9add7
She is the one . . . Sailor Moon 



************************************

| /   slide up
| \   slide down
| h   hammer-on
| p   pull-off
| ~   vibrato
| +   harmonic
| x   Mute note
| b   Bend
| pb  Pre-bend
| br  Bend release
| pbr Pre-bend release
| brb Bend release bend

************************************
comments
print report bad tab
I want to post or [tab]
guest
You may want to rate the tab now too:
select rating
Please do not post tabs as comments. Select "correction" instead!