Oops, an error
Loading. Please wait.

Shigatsu Wa Kimi No Uso - Yuujin A-Kun Wo Watashi No Bansousha Ni Ninmeishimasu intro tab

2,392 views 33 this week
no commentswrite comment
1 2 3 4 5
x 3
add to favorites
×
Save as Personal and add changes to this tab that will be seen only by you. Learn more ›
×
You can save this tab as Personal to edit and correct it or add notes. All changes will be seen only by you. Learn more »
launch autoscroll
font size
0
reset
how to read this tab
guitar tuner
edit
Autoscroll
slow
fast
+/-
esc
set tempo
stop
Author
Difficulty
Standard tuning (EADGBe) - no capo

Shigatsu wa Kimi no Uso OST
Yuujin A-kun wo Watashi no Bansousha ni Ninmeishimasu by Masaru Yokoyama
a.k.a. Spring's Melody, Friend A

Tab arranged from Kevin Lin's piano arrangement of the song played throughout Shigatsu wa Kimi no Uso.
This is just an incomplete basic "melodic" tab.


[Intro]

e|--0---0---0-----|--0---0---0-----|--0---0---0-----|
B|----1---1---1---|----1---1---1---|----1---1---1---|  x2
G|----------------|----------------|----------------|
D|----------------|----------------|----------------|
A|----------------|----------------|----------------|
E|----------------|----------------|----------------|

e|--3---3---3-------|
B|----1---1---1-----|  x2
G|------------------|
D|------------------|
A|------------------|
E|------------------|

e|--0---0---0-------|
B|----1---1---1-----|  x2
G|------------------|
D|------------------|
A|------------------|
E|------------------|

e|------------------|
B|----3---3---3-----|  x2
G|------5---5---5---|
D|------------------|
A|------------------|
E|------------------|


[Melody]

e|---------------10------------------0----------10---|
B|-------10----------12/13--12----------10-----------| repeat ad nauseam
G|---12------12-----------------12----------12-------|
D|---------------------------------------------------|
A|---------------------------------------------------|
E|---------------------------------------------------|


There is a "bass" left hand as well along with the rest of the song, but I'll need more time 
to work that out, and make it easy to play on guitar.

**** Tip
A note on guitar is the same note 5 frets up on a lower string (with the exception of B string).
You can use this to adjust how you play the notes according to what's most comfortable for yourself.
e.g.

e|---------|
B|---------|  Both the same note 
G|---------|
D|---------|
A|--0------|
E|----5----|


************************************

| /   Slide up
| \   Slide down

************************************
Suggest correction
Creating personal tab
Creating personal tab
You can edit any tab online and save it as your Personal.

You can edit, replace or remove any tab part or add personal notes – all changes will be seen only by you.

Personal tabs can be accessed anytime from any device, even offline.
Learn more »
Give kudos to tab author, rate the tab!
1 2 3 4 5
comments
print report bad tab
guest
You may want to rate the tab now too:
select rating
Wanna post a correction for this tab? Suggest correction