Oops, an error
Loading. Please wait.

Shrek Theme Tab

version 1
version 1

Intro

Whole song

22,562 views 15 this week
8 commentsread comments
1 2 3 4 5
x 19
add to favorites
×
Save as Personal and add changes to this tab that will be seen only by you. Learn more ›
×
You can save this tab as Personal to edit and correct it or add notes. All changes will be seen only by you. Learn more »
save as personal
new!
launch autoscroll
font size
0
reset
how to read this tab
guitar tuner
Autoscroll
slow
fast
+/-
esc
set tempo
stop
Author
this is at teh start of teh movie, and in the first it is wat princess fiona sings and
kills the little birdie and has eggs for breakie,  its pretty easy, i found it myself,
i was quite impressed, this is my first tabb.

its a cool little tune to show of to ur mates.
you can play is anywhere along the neck just shift it across 3 spaces higher or lower.
enjoy

E----------------------------------|
A----------------------------------|
D----------------------------------|
G----------------------------------|
B-9-----99----------9 9---75579----|
e--79-97--79 12 11 7---79----------|
Suggest correction
comments
print report bad tab
8 comments total. Showing first comments.
+3 reply
ThumperBunny 56 Jun 11, 2006 06:38 AM

its an ok tab just you put it upside down unless you're a left player
i've made it a bit more understandable

e---7h9-9p7-----7h9-12-11-7-----7h9----------|
B-9---------9-9-------------9-9-----7-5-5-7-9|
G--------------------------------------------|
D--------------------------------------------|
A--------------------------------------------|
E--------------------------------------------|

0 reply
Goleran 21 Apr 01, 2007 01:23 PM

should end on e 7

0 reply
nathajrb 40 Jul 05, 2007 08:09 AM

@thumperBunny - doh that makes more sense!!!

guest
You may want to rate the tab now too:
select rating
Wanna post a correction for this tab? Suggest correction