Oops, an error
Loading. Please wait.

South Park - La Resistance tab

157 views 6 this week
no commentswrite comment
1 2 3 4 5
3 more votes to show rating
add to favorites
×
Save as Personal and add changes to this tab that will be seen only by you. Learn more ›
×
You can save this tab as Personal to edit and correct it or add notes. All changes will be seen only by you. Learn more »
launch autoscroll
font size
0
reset
how to read this tab
guitar tuner
edit
Autoscroll
slow
fast
+/-
esc
set tempo
stop
Author
Difficulty
intermediate
[GREGORY]

           Fm         Ab                 Cm      Ab        Fm      Ab/Eb
e|---------1--------|-4----------------|-3-------4---4---|-8---8---4---4----|
B|---------1--------|-4----------------|-4-------4---4---|-9---9---4---4----|
G|---------1--------|-5---5---5--------|-5-------5-------|10--10---5---5----|
D|---------3--------|-6---6---6--------|-5-------6-------|------------------|
A|---------3--------|-6---6---6---6----|-3---3-1-6-------|-8---8---6---6----|
E|---------1---1-3--|-4---4-4-4---4----|---------4-------|------------------|
           ^          ^   ^   ^   ^      ^       ^
        ...day             ...nation  ...hand           ...blessed

   Db      Ab/C       Db      Ebsus4     Ab
e|------------------|------------------|-4---------------|
B|-6---6---1---1----|-6---6---9---8----|-4---------------|
G|-6---6---1---1----|-6---6---8---8----|-5---------------|
D|-6---6---1---1----|-6---6---8---8----|-6---------------|
A|-4---4---3---3----|-4---4---6---6----|-6---------------|
E|------------------|------------------|-4---------------|
                                         ^
...fight           ...only            ...stand.


(Triplet-Feel)

   F           C              Am          Dm             F           C              Am          Dm
e|-1-----1-----0-----0------|-0-----0-----1-----1------|-1-----1-----0-----0------|-0-----0-----1-----1------|
B|-1-----1-----1-----1------|-1-----1-----3-----3------|-1-----1-----1-----1------|-1-----1-----3-----3------|
G|-2-----2-----0-----0------|-2-----2-----2-----2------|-2-----2-----0-----0------|-2-----2-----2-----2------|
D|--------------------------|-------------0-----0------|--------------------------|-------------0-----0------|
A|-------------3-----3------|-0-----0------------------|-------------3-----3------|-0-----0------------------|
E|-1-----1------------------|--------------------------|-1-----1------------------|--------------------------|

   F           C              Am          Dm             Bb          Csus4 C        F           
e|-1-----1-----0-----0------|-0-----0-----1-----1------|--------------------------|-1-----------------1------|
B|-1-----1-----1-----1------|-1-----1-----3-----3------|-3-----3-----6-----5------|-1-----------1---1---1----|
G|-2-----2-----0-----0------|-2-----2-----2-----2------|-3-----3-----5-----5------|-2-----2---2---2-------2--|
D|--------------------------|-------------0-----0------|-3-----3-----5-----5------|-----3---3----------------|
A|-------------3-----3------|-0-----0------------------|-1-----1-----3-----3------|--------------------------|
E|-1-----1------------------|--------------------------|--------------------------|-1------------------------|


[CHILDREN]

   F           C              Am          Dm             F           C              Am          Dm
e|-1-----1-----0-----0------|-0-----0-----1-----1------|-1-----1-----0-----0------|-0-----0-----1-----1------|
B|-1-----1-----1-----1------|-1-----1-----3-----3------|-1-----1-----1-----1------|-1-----1-----3-----3------|
G|-2-----2-----0-----0------|-2-----2-----2-----2------|-2-----2-----0-----0------|-2-----2-----2-----2------|
D|--------------------------|-------------0-----0------|--------------------------|-------------0-----0------|
A|-------------3-----3------|-0-----0------------------|-------------3-----3------|-0-----0------------------|
E|-1-----1------------------|--------------------------|-1-----1------------------|--------------------------|
 
   F           C              Am          Dm             Bb          Csus4 C        F                 B/C# 
e|-1-----1-----0-----0------|-0-----0-----1-----1------|--------------------------|-1-----1-1-1-1------------|
B|-1-----1-----1-----1------|-1-----1-----3-----3------|-3-----3-----6-----5------|-1-----1-1-1-1-----4------|
G|-2-----2-----0-----0------|-2-----2-----2-----2------|-3-----3-----5-----5------|-2-----2-2-2-2-----4------|
D|--------------------------|-------------0-----0------|-3-----3-----5-----5------|-------3-3-3-3-----4------|
A|-------------3-----3------|-0-----0------------------|-1-----1-----3-----3------|-------3-3-3-3-----4------|
E|-1-----1------------------|--------------------------|--------------------------|-1-----1-1-1-1------------|

                                                                                          v ^ v ^
[PARENTS]

   F#                B        F#                B       C#7/G# F#   C#7/E# F#      C#7/G# F#   C#7/E# F
e|-2-----2-----2------------|-2-----2-----2------------|--------------------------|-------------------1-1-1--|
B|-2-----2-----2-----4------|-2-----2-----2-----4------|--------------------------|-------------------1-1-1--|
G|-3-----3-----3-----4------|-3-----3-----3-----4------|-4-----3-----1-----3------|-4-----3-----1-----2-2-2--|
D|-------------------4------|-------------------4------|-6-----4-----3-----4------|-6-----4-----3------------|
A|-------------------2------|-------------------2------|--------------------------|--------------------------|
E|-2-----2-----2------------|-2-----2-----2------------|-4-----2-----1-----2------|-4-----2-----1-----1-1-1--|


[SOLDIERS]

   Bb          F              Dm          Gm             Bb          F              Dm          Gm
e|--------------------------|-1-----1------------------|--------------------------|-1-----1------------------|
B|-3-----3-----1-----1------|-3-----3-----3-----3------|-3-----3-----1-----1------|-3-----3-----3-----3------|
G|-3-----3-----2-----2------|-2-----2-----3-----3------|-3-----3-----2-----2------|-2-----2-----3-----3------|
D|-3-----3-----3-----3------|-0-----0-----5-----5------|-3-----3-----3-----3------|-0-----0-----5-----5------|
A|-1-----1------------------|--------------------------|-1-----1------------------|--------------------------|
E|-------------1-----1------|-------------3-----3------|-------------1-----1------|-------------3-----3------|

   Bb          F              Dm          Gm             Eb          Fsus4 F             
e|--------------------------|-1-----1------------------|--------------------------|
B|-3-----3-----1-----1------|-3-----3-----3-----3------|-8-----8----11----10------|
G|-3-----3-----2-----2------|-2-----2-----3-----3------|-8-----8----10----10------|
D|-3-----3-----3-----3------|-0-----0-----5-----5------|-8-----8----10----10------|
A|-1-----1------------------|--------------------------|-6-----6-----8-----8------|
E|-------------1-----1------|-------------3-----3------|--------------------------|


[SATAN]

   B           F#             B           F#             C           G              C           Esus4 E  
e|--------------------------|--------------------------|--------------------------|--------------------------|
B|-4-----4-----2-----2------|-4-----4-----2-----2------|-5-----5-----3-----3------|-5-----5----10-----9------|
G|-4-----4-----3-----3------|-4-----4-----3-----3------|-5-----5-----4-----4------|-5-----5-----9-----9------|
D|-4-----4-----4-----4------|-4-----4-----4-----4------|-5-----5-----5-----5------|-5-----5-----9-----9------|
A|-2-----2------------------|-2-----2------------------|-3-----3------------------|-3-----3-----7-----7------|
E|-------------2-----2------|-------------2-----2------|-------------3-----3------|--------------------------|


[TERRANCE AND PHILLIP]

   Db                         Gb/Db                      Db                         Gb/Db      
e|--------------------------|--------------------------|--------------------------|--------------------------|
B|-6-----6-----6-----6------|-2-----2-----2-----2------|-6-----6-----6-----6------|-2-----2-----2-----2------|
G|-6-----6-----6-----6------|-3-----3-----3-----3------|-6-----6-----6-----6------|-3-----3-----3-----3------|
D|-6-----6-----6-----6------|-4-----4-----4-----4------|-6-----6-----6-----6------|-4-----4-----4-----4------|
A|-4-----4-----4-----4------|-4-----4-----4-----4------|-4-----4-----4-----4------|-4-----4-----4-----4------|
E|--------------------------|--------------------------|--------------------------|--------------------------|

   Ab          Bbm            Gb          Ab             
e|--------------------------|--------------------------|
B|-4-----------6------------|-2-----------4------------|
G|-5-----------6------------|-3-----------5------------|
D|-6-----------8------------|-4-----------6------------|
A|--------------------------|--------------------------|
E|-4-----4-----6-----6------|-2-----2-----4-----4------|


[CARTMAN, KYLE, STAN]

   D           G/D   A/D      D           G/D   A/D      D           G/D   A/D      F/C
e|-2-----2-----3-----0------|-2-----2-----3-----0------|-2-----2-----3-----0------|-1-----------1------------|
B|-3-----3-----3-----2------|-3-----3-----3-----2------|-3-----3-----3-----2------|-1-----------1------------|
G|-2-----2-----0-----2------|-2-----2-----0-----2------|-2-----2-----0-----2------|-2-----------2------------|
D|-0-----0-----0-----0------|-0-----0-----0-----0------|-0-----0-----0-----0------|--------------------------|
A|--------------------------|--------------------------|--------------------------|-3-----3-----3-----3------|
E|--------------------------|--------------------------|--------------------------|--------------------------|


[SATAN, SHEILA BROFLOVSKI]

   Bbmaj7                     Asus4/E     A
e|--------------------------|-0-----0-----0-----0------|
B|-3-----------3------------|-3-----3-----2-----2------|
G|-2-----------2------------|-2-----2-----2-----2------|
D|-3-----------3------------|-2-----2-----2---2-2------|
A|-1-----0------------------|-0-----0-----0---0-0------|
E|-------------3-----1------|-0-----0------------------|
                              ^     ^     ^   v ^


[FINAL]

   Bb          F              Dm          Gm             Bb          F              Dm          Gm
e|--------------------------|-1-----1------------------|--------------------------|-1-----1------------------|
B|-3-----3-----1-----1------|-3-----3-----3-----3------|-3-----3-----1-----1------|-3-----3-----3-----3------|
G|-3-----3-----2-----2------|-2-----2-----3-----3------|-3-----3-----2-----2------|-2-----2-----3-----3------|
D|-3-----3-----3-----3------|-0-----0-----5-----5------|-3-----3-----3-----3------|-0-----0-----5-----5------|
A|-1-----1------------------|--------------------------|-1-----1------------------|--------------------------|
E|-------------1-----1------|-------------3-----3------|-------------1-----1------|-------------3-----3------|

   Bb          F              Dm          Gm             Eb                        F             
e|--------------------------|-1-----1------------------|--------------------------|--------------------------|
B|-3-----3-----1-----1------|-3-----3-----3-----3------|-8-----8-----8-----8------|10----10----10----10------|
G|-3-----3-----2-----2------|-2-----2-----3-----3------|-8-----8-----8-----8------|10----10----10----10------|
D|-3-----3-----3-----3------|-0-----0-----5-----5------|-8-----8-----8-----8------|10----10----10----10------|
A|-1-----1------------------|--------------------------|-6-----6-----6-----6------|-8-----8-----8-----8------|
E|-------------1-----1------|-------------3-----3------|--------------------------|--------------------------|
                                                                                     ^     ^     ^     ^ 
   Gb                         Ebm                        Bb
e|-2-----2-----2-----2------|-6-----6-----6-----6------|-1-----1-----1-----1------|-1-----1-----1-----1------|
B|-2-----2-----2-----2------|-7-----7-----7-----7------|-3-----3-----3-----3------|-3-----3-----3-----3------|
G|-3-----3-----3-----3------|-8-----8-----8-----8------|-3-----3-----3-----3------|-3-----3-----3-----3------|
D|-4-----4-----4---4-4------|-8-----8-----8---8-8------|-3---3-3---3-3---3-3---3--|-3---3-3---3-3---3-3---3--|
A|-4-----4-----4---4-4------|-6-----6-----6---6-6------|-1---1-1---1-1---1-1---1--|-1---1-1---1-1---1-1---1--|
E|-2-----2-----2---2-2------|--------------------------|--------------------------|--------------------------|
   ^     ^     ^   v ^        ^     ^     ^   v ^        ^   v ^   v ^   v ^   v    ^   v ^   v ^   v ^   v

   Bb                                            
e|-1-----1-----1-----1------|-1------------------------|
B|-3-----3-----3-----3------|-3------------------------|
G|-3-----3-----3-----3------|-3------------------------|
D|-3---3-3---3-3---3-3---3--|-3-----3-3-3-3------------|
A|-1---1-1---1-1---1-1---1--|-1-----1-1-1-1------------|
E|--------------------------|--------------------------|
   ^   v ^   v ^   v ^   v    ^     ^ v ^ v



            
            
Suggest correction
Creating personal tab
Creating personal tab
You can edit any tab online and save it as your Personal.

You can edit, replace or remove any tab part or add personal notes – all changes will be seen only by you.

Personal tabs can be accessed anytime from any device, even offline.
Learn more »
Give kudos to tab author, rate the tab!
1 2 3 4 5
comments
print report bad tab
guest
You may want to rate the tab now too:
select rating
Wanna post a correction for this tab? Suggest correction