Oops, an error
Loading. Please wait.

South Park Theme Bass Tab

version 1
version 1

Whole song

Interactive

3,329 views 9 this week
no commentswrite comment
1 2 3 4 5
please rate
add to favorites
launch autoscroll
font size
0
reset
guitar tuner
Autoscroll
slow
fast
+/-
esc
set tempo
stop
Help us to improve Ultimate-Guitar.com Take our survey!
×
Author
Tabbed by: Jp      someperson
Email: MyRandomLife24

Tuning: Standard EADG

Verse:
G|---------------------------------|
D|-3/4-3/4-3/4-3/4-3/4-3/4-3/4-3/4-|
A|---------------------------------|
E|---------------------------------|

Chorus:
G|-------5-4-3-------5-4-3-|
D|-3-4-5-------3-4-5-------|
A|-------------------------|
E|-------------------------|

Verse:
G|---------------------------------|
D|-3/4-3/4-3/4-3/4-3/4-3/4-3/4-3/4-|
A|---------------------------------|
E|---------------------------------|

Chorus:
G|-------5-4-3-------5-4-3-|
D|-3-4-5-------3-4-5-------|
A|-------------------------|
E|-------------------------|

Verse:
G|---------------------------------|
D|-3/4-3/4-3/4-3/4-3/4-3/4-3/4-3/4-|
A|---------------------------------|
E|---------------------------------|

Chorus:
G|-------5-4-3-------5-4-3-|
D|-3-4-5-------3-4-5-------|
A|-------------------------|
E|-------------------------|

Verse:
G|---------------------------------|
D|-3/4-3/4-3/4-3/4-3/4-3/4-3/4-3/4-|
A|---------------------------------|
E|---------------------------------|

I know thats not 100% right... but at least it goes well with the song. If you can 
on this, just contact me and ill fix it. Thanks. Enjoy! =]
Suggest correction
Give kudos to tab author, rate the tab!
1 2 3 4 5
comments
print report bad tab
guest
You may want to rate the tab now too:
select rating
Please do not post tabs as comments. Select "correction" instead!