Oops, an error
Loading. Please wait.

Spiderman Bass

3,389 views 6 this week
2 commentsread comments
1 2 3 4 5
1 last vote to show rating
add to favorites
launch autoscroll
font size
0
reset
guitar tuner
×
Best way to learn
"Spiderman"
Autoscroll
slow
fast
+/-
esc
set tempo
stop
Author
Difficulty
Tuning: Standard

|-----------------------------------------|
|-----------------------------------------|
|-0--3-7x--5--3-0x--0--3-7x-7x--7-5--3-0x-|
|-----------------------------------------|

|-----------------------------------------|
|-0--3-7x--5--3-0x------------------------|
|-------------------0--3-7x-7x--7-5--3-0x-|
|-----------------------------------------|

|------------------------|
|------------------------|
|-7p5~--5-3x--0-3x--5-0~-|
|------------------------|

this is how I play it, I think it's the "original" theme.
Suggest correction
Give kudos to tab author, rate the tab!
1 2 3 4 5
comments
print report bad tab
2 comments total.
0 reply
RaiLeff 12,922 May 27, 2007 02:57 PM

(8) SpiderMan, SpiderMan
Where've you gone to SpiderMan?
Where have you gone to SpiderMaaaaaaaan? (8)

Hahah I think this appears on the second movie
fun tab haha

0 reply
carrotcake 2,007 Jun 27, 2007 03:39 PM

my "school" band played this and everybody was playing it wrong cause it was the actually version (but then again, everybody in band at my school sucks except for me, some chinese guy, and a guy named robert, and a couple girls)

guest
You may want to rate the tab now too:
select rating
Wanna post a correction for this tab? Suggest correction