Oops, an error
Loading. Please wait.

Spiderman Theme Bass Tab

version 1
version 1

Whole song

Interactive

9,757 views 9 this week
2 commentsread comments
1 2 3 4 5
x 8
add to favorites
launch autoscroll
font size
0
reset
guitar tuner
Autoscroll
slow
fast
+/-
esc
set tempo
stop
Help us to improve Ultimate-Guitar.com Take our survey!
×
Title: Spider-Man TV show
Artist: Miscellaneous
Tabbed by: Tycho
Email: Tycho_bech@hotmail.com


G|-----0--0---------00-------|---1-5---5-1--------0--0-----|
D|---1------1-----1----3-1---|-3-----------3----1------1---|
A|-3----------3-3----------3-|----------------3----------3-|
E|---------------------------|-----------------------------|

G|-----------------------|
D|-55-5-4-3-4-1----------|
A|--------------3--------|
E|-----------------------|
Suggest correction
comments
print report bad tab
2 comments total.
0 reply
effexor96 52 Sep 17, 2010 07:17 AM

so close, the end part is

G|------------------------|
D|-55-5-3--1-3-1----------|
A|---------------3--------|
E|------------------------|

0 reply
BassKiller24 10 Apr 27, 2015 06:37 PM

G|------------------------|
D|-55-5-3--1-3-1----------|
A|---------------3--------|
E|------------------------

guest
You may want to rate the tab now too:
select rating
Wanna post a correction for this tab? Suggest correction