Oops, an error
Loading. Please wait.

Spirit Stallion Of The Cimarron - Homeland Tab

7,132 views 33 this week
3 commentsread comments
1 2 3 4 5
accurate
x 9
add to favorites
launch autoscroll
font size
0
reset
how to read this tab
guitar tuner
Autoscroll
slow
fast
+/-
esc
set tempo
stop
Help us to improve Ultimate-Guitar.com Take our survey!
×
Contributor
Difficulty
novice
Heres the soundtrack, Homeland, from the movie Spirit: stallion of the Cimarron. I made
it really simple, but maybe there are some differences between this one and the real
song, so hope you dont mind, and enjoy! *you can also put bass strings in it, hope you 
can figure that out, because I didnt ;)

~Part 1~
|--------------------------------------------------------------------------|
|------1----3----5----3----1----0------------------------------------------|
|--0------------------------------------2---0---------0--------------------|
|--------------------------------------------------3-----------------------|
|--------------------------------------------------------------------------|
|--------------------------------------------------------------------------|

~Part 2~
|--------------3-----3--5--3--1--3--3--5--3--1--3--0--0--------8--8--7--5--|
|----1--3--5------1--------------------------------------3--1--------------|
|-0------------------------------------------------------------------------|
|--------------------------------------------------------------------------|
|--------------------------------------------------------------------------|
|--------------------------------------------------------------------------|

|--------------------------------------------------------------------------|
|----1--3--5--5--3--1--3--1------------------------------------------------|
|-0------------------------------------------------------------------------|
|--------------------------------------------------------------------------|
|--------------------------------------------------------------------------|
|--------------------------------------------------------------------------|

~Part 3~
|--------------------------------0--------------------0--3--3--5-1-1--3----|
|----1--0------------1--0--1--3--------1--0-----1--3-----------------------|
|-0-------2--0----0-----------------0--------2-----------------------------|
|---------------2----------------------------------------------------------|
|--------------------------------------------------------------------------|
|--------------------------------------------------------------------------|



If youve anything to say about the tab, you can always mail me; lisa98_vdmeer@hotmail.com

Xoxo
Suggest correction What's this?
You can suggest a correction to this tab. Community and Mods will review your correction and vote to approve or reject it.
comments
print report bad tab
3 comments total.
+1 reply
Linkhar 13 wrote on April 29 2013, 08:00 am

Awesome Job. yeah, you can kindda hear the bass strings is missing, but its definately not a need, and it sounds good and can still be played without it, and stills ounding like they wasn't needed. Again - awesome job, i love you for this. Thanks!

+2 reply
emily43 15 wrote on April 14 2014, 08:27 pm

~Part 2~
|--------------3-----3--5--3--1--3--3--5--3--1--3--0--------------8--7--5--|
|----1--3--5------1--------------------------------------3--1--------------|
|-0------------------------------------------------------------------------|
|--------------------------------------------------------------------------|
|--------------------------------------------------------------------------|
|--------------------------------------------------------------------------|

0 reply
lukriinah 11 wrote on February 21 2016, 11:25 am

It sounds awesome, exactly like the song but it kind of doesn't sound like the whole song to me? Could it be that there's something missing? x

I want to post or [tab]
guest
You may want to rate the tab now too:
select rating
Please do not post tabs as comments. Select "correction" instead!