Oops, an error
Loading. Please wait.

Sponge Bob Square Pants - Credits Tab

37,080 views 21 this week
2 commentsread comments
1 2 3 4 5
x 10
add to favorites
launch autoscroll
font size
0
reset
how to read this tab
guitar tuner
×
Best way to learn
"Sponge Bob Square Pants - Credits"
Autoscroll
slow
fast
+/-
esc
set tempo
stop
Author
Difficulty
E|7-6-7-9-7------7-6-7-9-7-------|7-7-7---10-10-10-9-7-|-7-6-7-9-7-----|
B|-------------------------------|--6-6---9--9---------|---------------|
G|-------------------------------|--6-6---9--9---------|---------------|
D|-------------------------------|---------------------|---------------|
A|------------7----------------7-|---------------------|-------------7-|
E|----------5----------------5---|---------------------|-----------5---|

E|7-6-7-9-7-7-9-11b~-|
B|-------------------|
G|-------------------|
D|-------------------|
A|-------------------|
E|-------------------|

The tab might be weird but its my first time tabbing so enjoy :) 

Suggest correction
comments
print report bad tab
2 comments total.
0 reply
breath_rock_666 10 Jul 30, 2008 06:15 AM

for the last part...isnt it suppose to be like this:

E|7-6-7-9-7-11-------|
B|--------------16b--|
G|-------------------|
D|-------------------|
A|-------------------|
E|-------------------|

+2 reply
shmameltoe 10 Sep 12, 2009 12:01 PM

the 16 and 11 sound like the same note to me. just add some vibrato to the second bass note and your kids will love this...mine does

guest
You may want to rate the tab now too:
select rating
Wanna post a correction for this tab? Suggest correction