Oops, an error
Loading. Please wait.

Spongebob Squarepants - Ending Theme Tab

version 1
version 1

Acoustic

  • My own version of the show Spongebob Squarepants (... Show more

Whole song

Interactive

595 views 6 this week
no commentswrite comment
1 2 3 4 5
1 last vote to show rating
add to favorites
launch autoscroll
font size
0
reset
how to read this tab
guitar tuner
×
Best way to learn
"Spongebob Squarepants - Ending Theme"
Autoscroll
slow
fast
+/-
esc
set tempo
stop
Author
Difficulty
About this tab version
My own version of the show Spongebob Squarepants (C) end tune. easy to play. fun song. no capo. Was this info helpful? Yes No
e  -------7-6-7-9-7------7-6-7-9-7--- 
B  ----------------------------------
G  ----------------------------------
D  -0-7-7-----------0-7-7------------
A  ----------------------------------
E  ----------------------------------

e  -------7-6-7-9-7-------7-6-7-9-7--7-6-7-9-7-11-12--|
B  ---------------------------------------------------|
G  -0-7-7---------------------------------------------|
D  -----------------0-7-7-----------------------------|
A  ---------------------------------------------------|
E  ---------------------------------------------------|

Just to be clear, this is my OWN version of the
Spongebob Squarepants(C) end tune. Hope you like it! 
Suggest correction
Give kudos to tab author, rate the tab!
1 2 3 4 5
comments
print report bad tab
guest
You may want to rate the tab now too:
select rating
Wanna post a correction for this tab? Suggest correction