Oops, an error
Loading. Please wait.

Spongebob Squarepants - Garys Song bass

1,015 views 18 this week
no commentswrite comment
1 2 3 4 5
x 3
add to favorites
×
Save as Personal and add changes to this tab that will be seen only by you. Learn more ›
×
You can save this tab as Personal to edit and correct it or add notes. All changes will be seen only by you. Learn more »
launch autoscroll
font size
0
reset
guitar tuner
edit
Autoscroll
slow
fast
+/-
esc
set tempo
stop
Author
Difficulty
[Intro]

G|-----------------------------------------------------------------------------|
D|------------------------------------------------------5----------------------|
A|------------------------5-----3-----------5-----7----------------------------|  x3
E|----3--------5----7----------------------------------------------------------|

[Pre-chorus]

G|-----------------------------------------------------------------------------|
D|-----------------------------------------------------------------------------|
A|------------------------3----------------------3------3--5------5------------|
E|----1--------3----5-----------3----3-2------2--------------------------------|

[1st Chorus]

G|-----------------------------------------------------------------------------|
D|---------------7-----9-10----------7-----------------7-----9-10---------7----|
A|----7---9-10---------------7---10-----10---7--9-10---------------7--10-----10|
E|-----------------------------------------------------------------------------|

G|-----------------------------------------------------------------------------|
D|---------------7-----9-10----------------------------------------------------|
A|----7---9-10---------------7-10----------------------------------------------|
E|---------------------------------17\3(go back to intro)----------------------|

[2nd Chorus]

G|-----------------------------------------------------------------------------|
D|---------------7-----9-10----------7-----------------7-----9-10---------7----|
A|----7---9-10---------------7---10-----10---7--9-10---------------7--10-----10|
E|-----------------------------------------------------------------------------|

G|-----------------------------------------------------------------------------|
D|---------------7-----9-10----------7-----------------7-----9-10--------------|
A|----7---9-10---------------7---10-----10---7--9-10---------------7--10-------|
E|------------------------------------------------------------------------17\3-|

[Outro]

G|-----------------------------------------------------------------------------|
D|----------------------------------------------------------5------------------|
A|-----------------------5----7----5----3-------5-----7------------------------|  x5
E|----3--------5----7----------------------------------------------------------|

G|-----------------------------------------------------------------------------|
D|---------------------------------------------7---5------5-----5--------------|
A|-----------------------5----7----5----3--------------5h7---5h7---------------|
E|----3--------5----7----------------------------------------------------------|

G|-----------------------------------------------------------------------------|
D|---------------------------------------------7---5------5h7p5----------------|
A|-----------------------5----7----5----3----------------------5---------------|
E|----3--------5----7---------------------------------------------(3)----------|

*****************************************

| \  slide down
| h  hammer-on
| p  pull-off

*****************************************


[Lyrics:]

Gary, now I know I was wrong
I messed up, and now you're gone

Gary, I'm sorry I neglected you
Oh, I never expected you to run away and leave me
Feeling this empty
Your meow right now would sound like music to me
Please come home, 'cause I miss you, Gary

(Gary come home...)
Gary come home
(Gary come home...)

Gary, can't you see I was blind
I'll do anything to change your mind

More than a pet, you're my best friend
Too cool to forget, come back
'Cause we are family
And forgive me for making you wanna roam

And now my heart is beating like the saddest metronome
Somewhere I hope you're reading my latest three-words
poem: Gary come home

(Gary come home...)
Gary come home
(Gary come home...)
Gary come home
(Gary come home...)
Gary come home
(Gary come home)
Ahh...
Gary, come home
Gary, come home
Gary, won't you come home
Please, won't you come home

===============================================================================

            
            
Suggest correction
Creating personal tab
Creating personal tab
You can edit any tab online and save it as your Personal.

You can edit, replace or remove any tab part or add personal notes – all changes will be seen only by you.

Personal tabs can be accessed anytime from any device, even offline.
Learn more »
Give kudos to tab author, rate the tab!
1 2 3 4 5
comments
print report bad tab
guest
You may want to rate the tab now too:
select rating
Wanna post a correction for this tab? Suggest correction