Oops, an error
Loading. Please wait.

Spongebob Squarepants - Jellyfish Jam tab

version 2
version 2

Whole song

1,642 views 66 this week
2 commentsread comments
1 2 3 4 5
x 4
add to favorites
×
Save as Personal and add changes to this tab that will be seen only by you. Learn more ›
×
You can save this tab as Personal to edit and correct it or add notes. All changes will be seen only by you. Learn more »
launch autoscroll
font size
0
reset
how to read this tab
guitar tuner
edit
Autoscroll
slow
fast
+/-
esc
set tempo
stop
Author
Difficulty
intermediate
------------------------------------------------------------------------
                                                Jellyfish Jam
------------------------------------------------------------------------
Tabbed by: TabMasterGreg
Tabbed from Brendan Olivieri's
Jellyfish Jam guitar cover
E standard tuning: EADGBe


e|-----x-x-x-x---x-x-x-x-----|
B|-----x-x-x-x---x-x-x-x-----|
G|-----9-9-9-9---9-9-9-9-----|
D|-----x-x-x-x---x-x-x-x-----| x 5
A|-----7-7-7-7---7-7-7-7-----|
E|-----0-0-0-0---0-0-0-0-----|

e|-----x-x-x-x---x-----------------------------------------------------|
B|-----x-x-x-x---x-----------------------------------------------------|
G|-----9-9-9-9---9-------9-11-11-9h11-11-11----9-11-11-9h11-9-9-11-----|
D|-----x-x-x-x---x-9-11---------------------11-------------------------|
A|-----7-7-7-7---7-----------------------------------------------------|
E|-----0-0-0-0---0-----------------------------------------------------|

e|--------------------------------------------------|
B|----------------------------10-10--10-10-10-------|
G|-----11*-11-9h11-11-11-9h11-------9---------11----|
D|--------------------------------------------------|
A|--------------------------------------------------|
E|--------------------------------------------------|

e|-------------------------------------------------|
B|-------------------------------------------------|
G|-----11-11-9h11-11-11----9-11-11-9h11-9-9-11-----|
D|----------------------11-------------------------|
A|-------------------------------------------------|
E|-------------------------------------------------|

e|--------------------------------------------------|
B|----------------------------10-10--10-10-10-------|
G|-----11*-11-9h11-11-11-9h11-------9---------11----|
D|--------------------------------------------------|
A|--------------------------------------------------|
E|--------------------------------------------------|

e|-----9-9-----------9~-9-9--------------------|
B|--------1010-12-12-------1010-12-121212~-----|
G|---------------------------------------------|
D|---------------------------------------------| x 3
A|---------------------------------------------|
E|---------------------------------------------|

e|-----9-9-----------9~-9-9-----------------------------------------------------------|
B|--------1010-12-12-------1010-12----------------------------------------------------|
G|--------------------------------------9-11-11-9h11-11-11----9-11-11-9h11-9-9-11-----|
D|---------------------------------9-11--------------------11-------------------------|
A|------------------------------------------------------------------------------------|
E|------------------------------------------------------------------------------------|

e|----------------------------------------------------|
B|----------------------------10-10---10-10-10--------|
G|------11*-11-9h11-11-11-9h11-------9---------11\----|
D|----------------------------------------------------| PAUSE!
A|----------------------------------------------------|
E|----------------------------------------------------|

Solo will be tabbed soon.



************************************

| x  Dead note
| h  Hammer-on
| \  Slide down
| ~  Vibrato

************************************

            
            
Suggest correction
Creating personal tab
Creating personal tab
You can edit any tab online and save it as your Personal.

You can edit, replace or remove any tab part or add personal notes – all changes will be seen only by you.

Personal tabs can be accessed anytime from any device, even offline.
Learn more »
comments
print report bad tab
2 comments total.
0 reply
tobybrooks031 10 Jun 29, 2017 01:48 PM

Great tab!

guest
You may want to rate the tab now too:
select rating
Wanna post a correction for this tab? Suggest correction