Oops, an error
Loading. Please wait.

Spongebob Squarepants - Twelfth Street Rag intro tab

3,916 views 147 this week
2 commentsread comments
1 2 3 4 5
1 last vote to show rating
add to favorites
×
Save as Personal and add changes to this tab that will be seen only by you. Learn more ›
×
You can save this tab as Personal to edit and correct it or add notes. All changes will be seen only by you. Learn more »
launch autoscroll
font size
0
reset
how to read this tab
guitar tuner
edit
Autoscroll
slow
fast
+/-
esc
set tempo
stop
Author
Difficulty
About this tab version
It's just the first bit of the song. Was this info helpful? Yes No
This is a cover of 12th Street Rag for Spongebob. This is only the first quarter of the song.

E|--18-17-18-20-18--------------------------------------------------------|
B|------------------------------------16-16-15-14-13-12(12)/(7)-7---------|
G|------------------16-15-16-18-16----------------------------------------|
D|------------------------------------------------------------------------|
A|------------------------------------------------------------------------|
E|------------------------------------------------------------------------|

E|--11--12-11-9-12-11-9-12-11--12-11-9-12-11-9-12-11--12-11-9-12-11-9-12-11-9~~~~~~~-|
B|-----------------------------------------------------------------------------------|
G|-----------------------------------------------------------------------------------| x3
D|-----------------------------------------------------------------------------------|
A|-----------------------------------------------------------------------------------|
E|-----------------------------------------------------------------------------------|

E|--------------------------------------------------------------------|
B|------------------/11-11-10-9/------------------9-10----------------|
G|--/13-13-12-11\-------------------7-7-9-10-11-----------------------|
D|--------------------------------------------------------------------|
A|--------------------------------------------------------------------|
E|--------------------------------------------------------------------|

E|--11--12-11-9-12-11-9-12-11--12-11-9-12-11-9-12-11--12-11-9-12-11-9-12-11-9~~~~~~~-|
B|-----------------------------------------------------------------------------------|
G|-----------------------------------------------------------------------------------| x3
D|-----------------------------------------------------------------------------------|
A|-----------------------------------------------------------------------------------|
E|-----------------------------------------------------------------------------------|

E|---/11-/11--13-15-13-15-13---/11-/11-12-13-15-13-15-13-11--------------------------------------------------|
B|-----------------------------------------------------------------------------------------------------------|
G|------------------------------------------------------------13b14b13-12-11-11-11-9-7-8-10-10b11-8--(8)-----|
D|---------------------------------------------------------------------------------------------------(8)-----|
A|---------------------------------------------------------------------------------------------------(6)-----|
E|-----------------------------------------------------------------------------------------------------------|

************************************

| ~    Vibrato
| /    Slide up
| \    Slide down
| (n)  Ghost note
| b    Bend
 

************************************

            
            
Suggest correction
Creating personal tab
Creating personal tab
You can edit any tab online and save it as your Personal.

You can edit, replace or remove any tab part or add personal notes – all changes will be seen only by you.

Personal tabs can be accessed anytime from any device, even offline.
Learn more »
Give kudos to tab author, rate the tab!
1 2 3 4 5
comments
print report bad tab
2 comments total.
0 reply
ccch74 1,629 May 04, 2017 06:49 PM

my guitar doesn't have fret 20 :(

guest
You may want to rate the tab now too:
select rating
Wanna post a correction for this tab? Suggest correction