Oops, an error
Loading. Please wait.

Spongebob Squarepants Theme Bass Tab

10,674 views 9 this week
2 commentsread comments
1 2 3 4 5
x 5
add to favorites
launch autoscroll
font size
0
reset
guitar tuner
Autoscroll
slow
fast
+/-
esc
set tempo
stop
Help us to improve Ultimate-Guitar.com Take our survey!
×
Author
Song Name: Spongebob Squarepants Theme
Tabbed by: MastermindVI

The Spongebob theme song, Im pretty confident it sounds well like this so here goes nothing...


“Ohhhhh…”
G|-------------------|
D|-------------------|
A|-2~----------------|
E|-------------------|

“Who lives in…”
G|--------------------|
D|2---2---2---2-------|
A|--2---2---2---2-2-3-|
E|--------------------|

“Absorbent and yellow…”
G|--------------------|
D|------------------2-|
A|3---3---3---3-------|
E|--3---3---3---3-3---|

“If nautical nonsense…”
G|--------------------|
D|2---2---2---2-------|
A|--2---2---2---2-2-3-|
E|--------------------|

“Then drop on the deck…”
G|--------------------|
D|------------------2-|
A|3---3---3---3-------|
E|--3---3---3---3-3---|

“Spongebob Squarepants…”
G|-----------|
D|5--2--0----|
A|---------2-|
E|-----------| (x3)

Finale
G|-----------|
D|0--2---4-5-|
A|-----------|
E|-----------|
Suggest correction
comments
print report bad tab
2 comments total.
0 reply
bassmasta.1515 10 Dec 26, 2010 12:36 AM

the only correct part is the ending

0 reply
Dizziy 10 Apr 17, 2016 01:58 AM

This is horribly incorrect i cant believe it i strongly suggest he play along to the instruments , just a suggestion

guest
You may want to rate the tab now too:
select rating
Wanna post a correction for this tab? Suggest correction