Oops, an error
Loading. Please wait.

Squidbillies Theme Tab

version 1
version 1

Whole song

Interactive

22,469 views 30 this week
no commentswrite comment
1 2 3 4 5
x 4
add to favorites
launch autoscroll
font size
0
reset
how to read this tab
guitar tuner
Autoscroll
slow
fast
+/-
esc
set tempo
stop
Help us to improve Ultimate-Guitar.com Take our survey!
×
Difficulty
intermediate
Tuning: Standard
Chords Used: D, G, A
General Song Chord Progression: D, G, D, A, D, G, D, A, G, D

It's not *exactly* like Billy Joe Shaver's version, but it's pretty damn close. Some of
lyrics are below the tabs. The song can be repeated minus the ending lick to make it
(the intro only has one verse, but I've pasted a few different verses used for different 
Have fun, it's a great little song!

     E  E  E  E  E  E  E  E     E  E  E  E  E  E  E  S   S
E||--------------2-----2-----|--2--2--------3-----3--------|
B||--------------3-----3-----|--3--3--3-----3-----3--5b7b5-|
G||-----0--1--2--2--2--2--4--|--4--2--2-----4-----4--------|
D||--4-----------------------|--------4-----5-----5--------|
A||--------------------------|-----------5--5-----5--------|
E||--------------------------|--------------3--3--3--------|


  S S S S S S E  E  E  Q       E  E  E  E  S S S S S S S S
--5-2-0-------5--5--5--5----|--5--5--5--5--5---5-----5-----|
--------3-0-3-3--3--3--3----|--3--3--3--2--2---2-----2-----|
--------------2--2--2--2----|--2--0-----2--2-4-----4-----4-|
----------------------------|--------4--2--2-----2-----2---|
----------------------------|-----------0--0-----0-----0---|
----------------------------|------------------------------|


  S S S S S S  E   E   E   Q        E   E   E   S     S E  E  E  E
--5-----5-----10--10--10--10----|--10--10---7---7-------7-----7-----|
--2-----2---2-10--10--10--10----|--10--10--10--10b12-10-8-----8-----|
------4---4----7---7---7---7----|--------------------------7--7-----|
----2----------7----------------|--------------------------0--0--0--|
----0---------------------------|-----------------------------------|
--------------------------------|-----------------------------------|


  E  E  E  E  E  E  E  E     E  E  E  E  E.  S E  E
--7-----7-----5-----5-----|--5-----5-----3-----3-----|
--8-----8-----7-----7-----|--5-----5-----3-----3-----|
--7-----7-----7-----7-----|--6-----6-----4-----4-----|
--0--0--0-----7-----7-----|--7-----7-----5-----5--0--|
-----------5--5--5--5-----|--7-----7-----5-----5-----|
-----------------------5--|--5--5--5--3--3---3-3-----|


  Q    E  S   S S S E  E  E
--2----2---------------1--2--|
--3----3--5b7-5-3-0-3--2--3--|
--2----2---------------1--2--|
--0----0---------------------|
-----------------------------|
-----------------------------|

Somehow I got spinal meningitis.
Injecting all that hairspray in my spine.
Its a super cheap way to party.
If you aim to kill some braincells and some time.
Good luck getting that child support check from me now.

My oldest son was born an albino.
My youngest covered in hair.
The middle one says he's a homosexual.
The other seven's gone, I don't where and I don't care.
I don't care.

Get your Yankee arse of my property.
Don't care if the bank gave you a deed.
This farms been Cuyler land for generations.
Since we beat back those slinky Japanese.
In the war of 1812, bring our boys home.

My dreams are all dead and buried.
Sometimes I wish the sun would just explode.
When god comes and calls me to his kingdom,
I'll take all you sons of bitches when I go!
Aaa ddeee leeeyy aaaaeee ooooo.

I gave all my best years to that woman.
All she gave me was mouths to feed.
Three miracles, straight from the loins of Jesus.
Since Charlie blew off both my testes.
1969 Cam Ranh Bay.
It was a massacre.

She run off and took our only chicken.
When I broke jail the house was burnt bare.
The Japs moved plant back to Osaka.
Some day life just don't seem that fair.
I don't even care, I'm tellin ya I just don't give a damn.

-Spencer
Suggest correction
comments
print report bad tab
guest
You may want to rate the tab now too:
select rating
Wanna post a correction for this tab? Suggest correction