Oops, an error
Loading. Please wait.

Steven Universe - Do It For Her bass

685 views 9 this week
no commentswrite comment
1 2 3 4 5
3 more votes to show rating
add to favorites
×
Save as Personal and add changes to this tab that will be seen only by you. Learn more ›
×
You can save this tab as Personal to edit and correct it or add notes. All changes will be seen only by you. Learn more »
launch autoscroll
font size
0
reset
guitar tuner
edit
Autoscroll
slow
fast
+/-
esc
set tempo
stop
Author
Difficulty
Steven Universe  - Do It For Him/Her

Tabbed by: Ash (XxThreeCheersxX)
email: burdickash@gmail.com

There's no actually bass guitar in this song, so this is an arrangement of the bass piano.

Happy playing!

Note: Notes in parentheses are optional

"You do it for him/And you would do it again..."
G|--------------------------------------------------------------------------|
D|--------------------------------------------------------------------------|
A|-5~----------------------------3~--------5~-----------------3~------------|
E|-----------3~-------------------------------------3~----------------------|

"Keep your stance wide/Keep your body lowered..."
G|---------7---------------------7---------------------7---------------------5----------4--|
D|-----7--------------7------7--------------7------7------5-------5------5----------4------|
A|-5--------------7------5--------------7------5---------------------3----------2----------|
E|------------5---------------------5-------------------------3----------------------------|

"Right foot left foot/Now go even faster..."
G|---------9----------4----------9----------4----------9----------7----------5----------------------|
D|-----9----------4----------9----------4----------9----------7----------5--------------------------|
A|-7---------------------7---------------------7----------5----------3----------(5)--(5)--(5)--(5)--|
E|------------3---------------------3---------------------------------------------------------------|

"Keep my stance wide/Keep my body lowered..."
G|---------7---------------------7---------------------7---------------------5----------4--|
D|-----7--------------7------7--------------7------7------5-------5------5----------4------|
A|-5--------------7------5--------------7------5---------------------3----------2----------|
E|------------5---------------------5-------------------------3----------------------------|

"Right foot left foot/Yes put your whole body into it..."
G|---------9----------4----------9----------4----------9----------7----------5----------------------|
D|-----9----------4----------9----------4----------9----------7----------5--------------------------|
A|-7---------------------7---------------------7----------5----------3----------2~------------------|
E|------------3---------------------3---------------------------------------------------------------|

"On the battlefield/When everything is chaos..."
G|------------------------------------------|
D|----------------------------7----------7--|
A|-------------------------7----------7-----|
E|-0----0----0----0----5----------3---------|

"The way you feel/A strategy and a sword..."
G|----------------------------------------------------------------------------------|
D|----------------------------7-----------------------------------------------------|
A|-------------------------7------------------------------------3~--------4~--------|
E|-0----0----0----0----5---------5----5----3---3---3--3----3------------------------|

"And then you do it for her/That's how you know you can win..."
G|--------------------------------------------------------------------------|
D|---------------------2~---------------------------------------------------|
A|-5~------------------~---------3~--------5~-----------------3~------------|
E|-----------3~-------------------------------------3~----------------------|

"Deep down you know/You weren't built for fighting..."
G|---------7---------------------7---------------------7---------------------5----------4--|
D|-----7--------------7------7--------------7------7------5-------5------5----------4------|
A|-5--------------7------5--------------7------5---------------------3----------2----------|
E|------------5---------------------5-------------------------3----------------------------|

"What they don't know/Is your real advantage..."
G|---------9----------4----------9----------4----------9----------7----------5----------------------|
D|-----9----------4----------9----------4----------9----------7----------5--------------------------|
A|-7---------------------7---------------------7----------5----------3----------3~------------------|
E|------------3---------------------3---------------------------------------------------------------|

"Deep down I know/That I'm just a human..."
G|---------7---------------------7---------------------7---------------------5----------4--|
D|-----7--------------7------7--------------7------7------5-------5------5----------4------|
A|-5--------------7------5--------------7------5---------------------3----------2----------|
E|------------5---------------------5-------------------------3----------------------------|

"With my short existence/I can make a difference..."
G|---------9----------4----------9----------4----------9----------7----------5----------------------|
D|-----9----------4----------9----------4----------9----------7----------5--------------------------|
A|-7---------------------7---------------------7----------5----------3----------3~------------------|
E|------------3---------------------3---------------------------------------------------------------|

"I can do it for him/You do it for her..."
G|---------------------------------------------------------------------------------|
D|---------------------------------------------------------------------------------|
A|-5~------------------5~--------3~--------5~------------------5~--------3~--------|
E|-----------3~--------------------------------------3~----------------------------|

"I do it for her and now you'll say/I'll do it for him"
G|---------------------------------------------------------------------------|
D|---------------------------------------------------------------------------|
A|-5~------------------3~----------------------------------------------------|
E|-----------3~--------------------------------------------------------------|

Happy playing!

************************************

| x   Dead note
| g   Grace note
| (n) Ghost note
| h   Hammer-on
| p   Pull-off
| r   Release
| >   Accented note
| t   Tapping
| b   Bend
| br  Bend release
| pb  Pre-bend
| pbr Pre-bend release
| /   Slide up
| \   Slide down
| ~   Vibrato
| s   Slap
| P   Pop
| PM  Palm mute
| TR  Trill
| N   Tremolo

************************************

            
            
Suggest correction
Creating personal tab
Creating personal tab
You can edit any tab online and save it as your Personal.

You can edit, replace or remove any tab part or add personal notes – all changes will be seen only by you.

Personal tabs can be accessed anytime from any device, even offline.
Learn more »
Give kudos to tab author, rate the tab!
1 2 3 4 5
comments
print report bad tab
guest
You may want to rate the tab now too:
select rating
Wanna post a correction for this tab? Suggest correction