Oops, an error
Loading. Please wait.

Steven Universe - Full Disclosure bass

901 views 9 this week
no commentswrite comment
1 2 3 4 5
3 more votes to show rating
add to favorites
×
Save as Personal and add changes to this tab that will be seen only by you. Learn more ›
×
You can save this tab as Personal to edit and correct it or add notes. All changes will be seen only by you. Learn more »
launch autoscroll
font size
0
reset
guitar tuner
edit
Autoscroll
slow
fast
+/-
esc
set tempo
stop
Author
Difficulty
Steven Universe - Full Disclosure 

Tabbed by: Ash (XxThreeCheersxX)
email: burdickash@gmail.com


"Everybody told me gem's stuff dangerous..."
G|------------------------------------------------------------------------|
D|-1~--------/3--1--------------------------------------------------------|
A|--------------------3~----------1---------------------------------------|
E|-------------------------------------4~------1~-------4~-------1~-------|

"I don't want that for you"
G|-------------------------------------|
D|-------------------------------------|
A|-------------------------------------|
E|-4~----------------6~----------------|

G|-----------------------------------------------------------------------------------|
D|-----------------------------------------------------------------------------------|
A|-6--6--6--6--6--6--6--6--------------------------3--3--3--3--3--3--3--3------------|
E|-------------------------3--3--3--3--3--3--3--3--------------------------6x--------|

"Everybody tells me life is precious..."
G|---------------------------------------------------------------------------------------------|
D|---------------------------------------------------------------------------------------------|
A|-6----6----6---3----3----3-------------------------------------------------------------------|
E|----------------------------6--4----4----1----1----4----4----1----1--4--1~--------/6~--------|

G|-----------------------------------------------------------------------------------|
D|-----------------------------------------------------------------------------------|
A|-6--6--6--6--6--6--6--6--------------------------3--3--3--3--3--3--3--3------------|
E|-------------------------3--3--3--3--3--3--3--3--------------------------6x--------|

"What am I going to tell you..."
G|---------------------------------------------|
D|---------------------------------------------|
A|------6h8p6---3~-------------------3----1----|
E|-4----------------------4~-------------------|

"I don't want you to worry..."
G|-------------------------------------------------|
D|----------------------------6--------------------|
A|------6h8p6---3~--------6h8------6--5--3----1----|
E|-4-----------------------------------------------|

"You don't have to be a part of this..."
G|---------------------------------------------------------------------------|
D|---------------------------------------------------------------------------|
A|-4----4--4-4-----------3----1----------------------------------------------|
E|-------------3~------------------4~--------/8~--------4--4--4--4--4x-------|

G|-------------------------------------------------------------------------------------------------|
D|-------------------------------------------------------------------------------------------------|
A|-6--6--6--6--6--6--6--6--------------------------3--3--3--3--3--3--3--3--------------------------|
E|-------------------------3--3--3--3--3--3--3--3--------------------------6--6--6--6--6--6--6--6--|

G|-------------------------------------------------------------------------------------------------|
D|-------------------------------------------------------------------------------------------------|
A|-6--6--6--6--6--6--6--6--------------------------3--3--3--3--3--3--3--3--------------------------|
E|-------------------------3--3--3--3--3--3--6--6--------------------------3x----------------------|


Happy playing!


************************************

| x   Dead note
| g   Grace note
| (n) Ghost note
| h   Hammer-on
| p   Pull-off
| r   Release
| >   Accented note
| t   Tapping
| b   Bend
| br  Bend release
| pb  Pre-bend
| pbr Pre-bend release
| /   Slide up
| \   Slide down
| ~   Vibrato
| s   Slap
| P   Pop
| PM  Palm mute
| TR  Trill
| N   Tremolo

************************************
Suggest correction
Creating personal tab
Creating personal tab
You can edit any tab online and save it as your Personal.

You can edit, replace or remove any tab part or add personal notes – all changes will be seen only by you.

Personal tabs can be accessed anytime from any device, even offline.
Learn more »
Give kudos to tab author, rate the tab!
1 2 3 4 5
comments
print report bad tab
guest
You may want to rate the tab now too:
select rating
Wanna post a correction for this tab? Suggest correction