Oops, an error
Loading. Please wait.

Steven Universe - Here Comes A Thought bass

version 2
version 2

Whole song

  • Tried to be as accurate as possible. Also added timing to the tab.
532 views 3 this week
no commentswrite comment
1 2 3 4 5
3 more votes to show rating
add to favorites
×
Save as Personal and add changes to this tab that will be seen only by you. Learn more ›
×
You can save this tab as Personal to edit and correct it or add notes. All changes will be seen only by you. Learn more »
launch autoscroll
font size
0
reset
guitar tuner
edit
Autoscroll
slow
fast
+/-
esc
set tempo
stop
Steven Universe - Here Comes a Thought

Tabbed by: Ash
email: burdickash@gmail.com

Tuning: Standard
Time Signature: 4/4

"Take a moment to think of just flexibility love and trust"
G|----------------|----------------|----------------|----------------|
D|----------3-----|----------------|----------3-----|----------------|
A|-------------3--|----------------|-------------3--|----------------|
E|-1--------------|-0--------------|-1--------------|-0--------------|

"Here comes a thought that might alarm you, what someone said and how it harmed you"
G|----------------|----------------|----------5-----|----------------|
D|----------------|----------------|-3--------------|-2--------------|
A|-3--------------|-3--------------|------------3-3-|----------------|
E|----------------|----------------|----------------|----------------|

"Something you did that failed to be charming, things that you said are suddenly swarming"
G|----------------|------------0---|----------5-----|----------------|
D|----------------|----------4---2-|-3--------------|-2--------------|
A|-3-------{3)----|-3-------3------|------------3-3-|----------------|
E|----------------|----------------|----------------|----------------|

"And oh, you're losing sight, you're losing touch, all these little things seem to matter so much"
G|----------------|-----------------|----------------|---------------|
D|----------------|-----------5-----|--------------2-|-4-4-44-4-4----|
A|-5-5-55-5-5---5-|-5-5-55-5-5--7-5-|-3-3-33-3-3--3--|---------------|
E|----------------|-----------------|----------------|---------------|

"That they confuse you, that I might lose you"
G|----------------|----------------|----------------|----------------|
D|----------------|----------------|-3--------------|----------------|
A|-5--------------|----------------|----------------|----------------|
E|----------------|----------------|----------------|----------------|

"Take a moment to remind yourself to take a moment and find yourself..."
G|----------------|----------------|----------------|----------------|
D|----------3-----|----------------|----------3-----|----------------|
A|-------------3--|----------------|-------------3--|----------------|
E|-1--------------|-0--------------|-1--------------|-0--------------|

"But it's not but it's not but it's not but it's not..."
G|----------------|---------------|-----------------|--------------------|
D|----------------|--------33-----|-----------------|--------33----------|
A|-3-------33-----|---------------|-3--------33-----|--------------------|
E|----------------|-1---------1---|-----------------|-1----------1-1-1-3-|

"You got nothing you got nothing you got nothing to fear..."
G|---------------|-----------------|----------------|--------------------|
D|---------------|--------3--------|------3---------|--------------------|
A|-3------33--3--|---------------5-|----------------|-3------------------|
E|---------------|-1---------1-----|----------------|--------------------|

"Here comes a thought that might alarm me..."
G|---------------|-----------------|----------------|----------------|
D|---------------|-----------------|-3--------------|-2--------------|
A|---------------|-3---------------|----------------|----------------|
E|---------------|-----------------|----------------|----------------|

"Something I did failed to be charming..."
G|---------------|-----------------|----------------|----------------|
D|---------------|-----------------|-3--------------|-2--------------|
A|-3-------------|-3---------------|----------------|----------------|
E|---------------|-----------------|----------------|----------------|

"And oh, I'm losing sight, I'm losing touch, all these little things seem to matter so much"
G|----------------|-----------------|----------------|---------------|
D|----------------|-----------5-----|--------------2-|-4-4-44-4-4----|
A|-5-5-55-5-5---5-|-5-5-55-5-5--7-5-|-3-3-33-3-3--3--|---------------|
E|----------------|-----------------|----------------|---------------|

"That they confuse me, that I might lose me"
G|----------------|----------------|----------------|----------------|
D|----------------|----------------|-3--------------|----------------|
A|-5--------------|----------------|----------------|----------------|
E|----------------|----------------|----------------|----------------|

"Take a moment to remind yourself to take a moment and find yourself..."
G|----------------|----------------|----------------|----------------|
D|----------3-----|----------------|----------3-----|----------------|
A|-------------3--|----------------|-------------3--|----------------|
E|-1--------------|-0--------------|-1--------------|-0--------------|

"But it's not but it's not but it's not but it's not..."
G|----------------|---------------|-----------------|--------------------|
D|----------------|--------33-----|-----------------|--------33----------|
A|-3-------33-----|---------------|-3--------33-----|--------------------|
E|----------------|-1---------1---|-----------------|-1----------1-1-1-3-|

"I've got nothing I've got nothing I've got nothing to fear..."
G|---------------|-----------------|----------------|--------------------|
D|---------------|--------3--------|------3---------|--------------------|
A|-3------33--3--|---------------5-|----------------|-3------------------|
E|---------------|-1---------1-----|----------------|--------------------|

"It was just a thought just a thought just a thought just a thought"
G|----------------|---------------|-----------------|--------------------|
D|----------------|--------33-----|-----------------|--------33----------|
A|-3-------33-----|---------------|-3--------33-----|--------------------|
E|----------------|-1---------1---|-----------------|-1----------1-1-1-3-|

"We can watch them go by..."
G|--------54-20---|-----------------|----------------|--------------------|
D|--------------2-|--------3--------|------3---------|--------------------|
A|-3--------------|---------------5-|----------------|-3------------------|
E|----------------|-1---------1-----|----------------|--------------------|


"Take a moment to think of just flexibility love and trust"
G|----------------|----------------|----------------|----------------|
D|----------3-----|----------------|----------3-----|----------------|
A|-------------3--|----------------|-------------3--|----------------|
E|-1--------------|-0--------------|-1--------------|-0--------------|

Happy playing!

************************************

| x   Dead note
| g   Grace note
| (n) Ghost note
| h   Hammer-on
| p   Pull-off
| r   Release
| >   Accented note
| t   Tapping
| b   Bend
| br  Bend release
| pb  Pre-bend
| pbr Pre-bend release
| /   Slide up
| \   Slide down
| ~   Vibrato
| s   Slap
| P   Pop
| PM  Palm mute
| TR  Trill
| N   Tremolo

************************************

            
            
Suggest correction
Creating personal tab
Creating personal tab
You can edit any tab online and save it as your Personal.

You can edit, replace or remove any tab part or add personal notes – all changes will be seen only by you.

Personal tabs can be accessed anytime from any device, even offline.
Learn more »
Give kudos to tab author, rate the tab!
1 2 3 4 5
comments
print report bad tab
guest
You may want to rate the tab now too:
select rating
Wanna post a correction for this tab? Suggest correction